ISO-10303-21;
HEADER;
/* Generated by software containing ST-Developer
 * from STEP Tools, Inc. (www.steptools.com) 
 */

FILE_DESCRIPTION(
/* description */ (''),
/* implementation_level */ '2;1');

FILE_NAME(
/* name */ 'M3x6.step',
/* time_stamp */ '2024-09-27T18:25:40+02:00',
/* author */ (''),
/* organization */ (''),
/* preprocessor_version */ 'ST-DEVELOPER v20',
/* originating_system */ 'Autodesk Translation Framework v13.20.0.188',

/* authorisation */ '');

FILE_SCHEMA (('AUTOMOTIVE_DESIGN { 1 0 10303 214 3 1 1 }'));
ENDSEC;

DATA;
#10=MECHANICAL_DESIGN_GEOMETRIC_PRESENTATION_REPRESENTATION('',(#13),#494);
#11=SHAPE_REPRESENTATION_RELATIONSHIP('SRR','None',#501,#12);
#12=ADVANCED_BREP_SHAPE_REPRESENTATION('',(#14),#493);
#13=STYLED_ITEM('',(#511),#14);
#14=MANIFOLD_SOLID_BREP('Body1',#277);
#15=FACE_BOUND('',#56,.T.);
#16=FACE_BOUND('',#58,.T.);
#17=PLANE('',#310);
#18=PLANE('',#311);
#19=PLANE('',#312);
#20=PLANE('',#313);
#21=PLANE('',#314);
#22=PLANE('',#315);
#23=PLANE('',#316);
#24=PLANE('',#317);
#25=PLANE('',#318);
#26=PLANE('',#319);
#27=TOROIDAL_SURFACE('',#301,1.65,0.15);
#28=CYLINDRICAL_SURFACE('',#296,2.75);
#29=CYLINDRICAL_SURFACE('',#305,1.5);
#30=FACE_OUTER_BOUND('',#47,.T.);
#31=FACE_OUTER_BOUND('',#48,.T.);
#32=FACE_OUTER_BOUND('',#49,.T.);
#33=FACE_OUTER_BOUND('',#50,.T.);
#34=FACE_OUTER_BOUND('',#51,.T.);
#35=FACE_OUTER_BOUND('',#52,.T.);
#36=FACE_OUTER_BOUND('',#53,.T.);
#37=FACE_OUTER_BOUND('',#54,.T.);
#38=FACE_OUTER_BOUND('',#55,.T.);
#39=FACE_OUTER_BOUND('',#57,.T.);
#40=FACE_OUTER_BOUND('',#59,.T.);
#41=FACE_OUTER_BOUND('',#60,.T.);
#42=FACE_OUTER_BOUND('',#61,.T.);
#43=FACE_OUTER_BOUND('',#62,.T.);
#44=FACE_OUTER_BOUND('',#63,.T.);
#45=FACE_OUTER_BOUND('',#64,.T.);
#46=FACE_OUTER_BOUND('',#65,.T.);
#47=EDGE_LOOP('',(#182,#183,#184,#185,#186,#187,#188,#189,#190,#191));
#48=EDGE_LOOP('',(#192,#193,#194,#195));
#49=EDGE_LOOP('',(#196,#197,#198,#199,#200));
#50=EDGE_LOOP('',(#201,#202,#203,#204,#205));
#51=EDGE_LOOP('',(#206,#207,#208,#209));
#52=EDGE_LOOP('',(#210,#211,#212,#213,#214));
#53=EDGE_LOOP('',(#215,#216,#217,#218,#219));
#54=EDGE_LOOP('',(#220));
#55=EDGE_LOOP('',(#221));
#56=EDGE_LOOP('',(#222));
#57=EDGE_LOOP('',(#223));
#58=EDGE_LOOP('',(#224));
#59=EDGE_LOOP('',(#225,#226,#227,#228,#229,#230));
#60=EDGE_LOOP('',(#231,#232,#233,#234));
#61=EDGE_LOOP('',(#235,#236,#237,#238));
#62=EDGE_LOOP('',(#239,#240,#241,#242,#243));
#63=EDGE_LOOP('',(#244,#245,#246,#247));
#64=EDGE_LOOP('',(#248,#249,#250,#251));
#65=EDGE_LOOP('',(#252,#253,#254,#255));
#66=CIRCLE('',#292,1.55162884844712);
#67=CIRCLE('',#294,2.75);
#68=CIRCLE('',#295,2.6);
#69=CIRCLE('',#297,2.75);
#70=CIRCLE('',#298,2.75);
#71=CIRCLE('',#300,2.6);
#72=CIRCLE('',#302,1.5);
#73=CIRCLE('',#303,0.15);
#74=CIRCLE('',#304,1.65);
#75=CIRCLE('',#306,1.5);
#76=CIRCLE('',#307,1.5);
#77=CIRCLE('',#309,1.17524047358084);
#78=LINE('',#418,#96);
#79=LINE('',#435,#97);
#80=LINE('',#442,#98);
#81=LINE('',#445,#99);
#82=LINE('',#458,#100);
#83=LINE('',#461,#101);
#84=LINE('',#469,#102);
#85=LINE('',#471,#103);
#86=LINE('',#473,#104);
#87=LINE('',#475,#105);
#88=LINE('',#477,#106);
#89=LINE('',#478,#107);
#90=LINE('',#480,#108);
#91=LINE('',#481,#109);
#92=LINE('',#483,#110);
#93=LINE('',#485,#111);
#94=LINE('',#487,#112);
#95=LINE('',#489,#113);
#96=VECTOR('',#324,1.55162884844712);
#97=VECTOR('',#331,2.75);
#98=VECTOR('',#340,2.75);
#99=VECTOR('',#343,2.6);
#100=VECTOR('',#360,1.5);
#101=VECTOR('',#363,1.17524047358084);
#102=VECTOR('',#374,1000.);
#103=VECTOR('',#375,1000.);
#104=VECTOR('',#376,1000.);
#105=VECTOR('',#377,1000.);
#106=VECTOR('',#378,1000.);
#107=VECTOR('',#379,1000.);
#108=VECTOR('',#382,1000.);
#109=VECTOR('',#383,1000.);
#110=VECTOR('',#386,1000.);
#111=VECTOR('',#389,1000.);
#112=VECTOR('',#392,1000.);
#113=VECTOR('',#395,1000.);
#114=(
BOUNDED_CURVE()
B_SPLINE_CURVE(2,(#402,#403,#404),.UNSPECIFIED.,.F.,.F.)
B_SPLINE_CURVE_WITH_KNOTS((3,3),(-0.37575288050971,-0.139709918898254),
 .UNSPECIFIED.)
CURVE()
GEOMETRIC_REPRESENTATION_ITEM()
RATIONAL_B_SPLINE_CURVE((1.41147367097488,1.62982940778282,1.41147367097488))
REPRESENTATION_ITEM('')
);
#115=(
BOUNDED_CURVE()
B_SPLINE_CURVE(2,(#406,#407,#408),.UNSPECIFIED.,.F.,.F.)
B_SPLINE_CURVE_WITH_KNOTS((3,3),(-0.375752880509709,-0.139709918898254),
 .UNSPECIFIED.)
CURVE()
GEOMETRIC_REPRESENTATION_ITEM()
RATIONAL_B_SPLINE_CURVE((1.41147367097488,1.62982940778282,1.41147367097488))
REPRESENTATION_ITEM('')
);
#116=(
BOUNDED_CURVE()
B_SPLINE_CURVE(2,(#410,#411,#412),.UNSPECIFIED.,.F.,.F.)
B_SPLINE_CURVE_WITH_KNOTS((3,3),(-0.37575288050971,-0.139709918898254),
 .UNSPECIFIED.)
CURVE()
GEOMETRIC_REPRESENTATION_ITEM()
RATIONAL_B_SPLINE_CURVE((1.41147367097488,1.62982940778282,1.41147367097488))
REPRESENTATION_ITEM('')
);
#117=(
BOUNDED_CURVE()
B_SPLINE_CURVE(2,(#414,#415,#416),.UNSPECIFIED.,.F.,.F.)
B_SPLINE_CURVE_WITH_KNOTS((3,3),(0.139709918898254,0.257731399703982),
 .UNSPECIFIED.)
CURVE()
GEOMETRIC_REPRESENTATION_ITEM()
RATIONAL_B_SPLINE_CURVE((1.41147367097488,1.52065153937885,1.52065153937885))
REPRESENTATION_ITEM('')
);
#118=(
BOUNDED_CURVE()
B_SPLINE_CURVE(2,(#421,#422,#423),.UNSPECIFIED.,.F.,.F.)
B_SPLINE_CURVE_WITH_KNOTS((3,3),(0.257731399703982,0.37575288050971),
 .UNSPECIFIED.)
CURVE()
GEOMETRIC_REPRESENTATION_ITEM()
RATIONAL_B_SPLINE_CURVE((1.52065153937885,1.52065153937885,1.41147367097488))
REPRESENTATION_ITEM('')
);
#119=(
BOUNDED_CURVE()
B_SPLINE_CURVE(2,(#425,#426,#427),.UNSPECIFIED.,.F.,.F.)
B_SPLINE_CURVE_WITH_KNOTS((3,3),(-0.37575288050971,-0.139709918898254),
 .UNSPECIFIED.)
CURVE()
GEOMETRIC_REPRESENTATION_ITEM()
RATIONAL_B_SPLINE_CURVE((1.41147367097488,1.62982940778282,1.41147367097488))
REPRESENTATION_ITEM('')
);
#120=(
BOUNDED_CURVE()
B_SPLINE_CURVE(2,(#428,#429,#430),.UNSPECIFIED.,.F.,.F.)
B_SPLINE_CURVE_WITH_KNOTS((3,3),(-0.37575288050971,-0.139709918898254),
 .UNSPECIFIED.)
CURVE()
GEOMETRIC_REPRESENTATION_ITEM()
RATIONAL_B_SPLINE_CURVE((1.41147367097488,1.62982940778282,1.41147367097488))
REPRESENTATION_ITEM('')
);
#121=VERTEX_POINT('',#400);
#122=VERTEX_POINT('',#401);
#123=VERTEX_POINT('',#405);
#124=VERTEX_POINT('',#409);
#125=VERTEX_POINT('',#413);
#126=VERTEX_POINT('',#417);
#127=VERTEX_POINT('',#420);
#128=VERTEX_POINT('',#424);
#129=VERTEX_POINT('',#432);
#130=VERTEX_POINT('',#434);
#131=VERTEX_POINT('',#438);
#132=VERTEX_POINT('',#439);
#133=VERTEX_POINT('',#444);
#134=VERTEX_POINT('',#448);
#135=VERTEX_POINT('',#450);
#136=VERTEX_POINT('',#454);
#137=VERTEX_POINT('',#455);
#138=VERTEX_POINT('',#460);
#139=VERTEX_POINT('',#467);
#140=VERTEX_POINT('',#468);
#141=VERTEX_POINT('',#470);
#142=VERTEX_POINT('',#472);
#143=VERTEX_POINT('',#474);
#144=VERTEX_POINT('',#476);
#145=EDGE_CURVE('',#121,#122,#114,.T.);
#146=EDGE_CURVE('',#123,#121,#115,.T.);
#147=EDGE_CURVE('',#124,#123,#116,.T.);
#148=EDGE_CURVE('',#125,#124,#117,.F.);
#149=EDGE_CURVE('',#125,#126,#78,.T.);
#150=EDGE_CURVE('',#126,#126,#66,.T.);
#151=EDGE_CURVE('',#127,#125,#118,.F.);
#152=EDGE_CURVE('',#128,#127,#119,.T.);
#153=EDGE_CURVE('',#122,#128,#120,.T.);
#154=EDGE_CURVE('',#129,#129,#67,.T.);
#155=EDGE_CURVE('',#129,#130,#79,.T.);
#156=EDGE_CURVE('',#130,#130,#68,.T.);
#157=EDGE_CURVE('',#131,#132,#69,.T.);
#158=EDGE_CURVE('',#132,#131,#70,.T.);
#159=EDGE_CURVE('',#132,#129,#80,.T.);
#160=EDGE_CURVE('',#131,#133,#81,.T.);
#161=EDGE_CURVE('',#133,#133,#71,.T.);
#162=EDGE_CURVE('',#134,#134,#72,.T.);
#163=EDGE_CURVE('',#134,#135,#73,.T.);
#164=EDGE_CURVE('',#135,#135,#74,.T.);
#165=EDGE_CURVE('',#136,#137,#75,.T.);
#166=EDGE_CURVE('',#137,#136,#76,.T.);
#167=EDGE_CURVE('',#137,#134,#82,.T.);
#168=EDGE_CURVE('',#136,#138,#83,.T.);
#169=EDGE_CURVE('',#138,#138,#77,.T.);
#170=EDGE_CURVE('',#139,#140,#84,.T.);
#171=EDGE_CURVE('',#140,#141,#85,.T.);
#172=EDGE_CURVE('',#141,#142,#86,.T.);
#173=EDGE_CURVE('',#142,#143,#87,.T.);
#174=EDGE_CURVE('',#143,#144,#88,.T.);
#175=EDGE_CURVE('',#144,#139,#89,.T.);
#176=EDGE_CURVE('',#139,#123,#90,.T.);
#177=EDGE_CURVE('',#140,#121,#91,.T.);
#178=EDGE_CURVE('',#144,#124,#92,.T.);
#179=EDGE_CURVE('',#143,#127,#93,.T.);
#180=EDGE_CURVE('',#142,#128,#94,.T.);
#181=EDGE_CURVE('',#141,#122,#95,.T.);
#182=ORIENTED_EDGE('',*,*,#145,.F.);
#183=ORIENTED_EDGE('',*,*,#146,.F.);
#184=ORIENTED_EDGE('',*,*,#147,.F.);
#185=ORIENTED_EDGE('',*,*,#148,.F.);
#186=ORIENTED_EDGE('',*,*,#149,.T.);
#187=ORIENTED_EDGE('',*,*,#150,.T.);
#188=ORIENTED_EDGE('',*,*,#149,.F.);
#189=ORIENTED_EDGE('',*,*,#151,.F.);
#190=ORIENTED_EDGE('',*,*,#152,.F.);
#191=ORIENTED_EDGE('',*,*,#153,.F.);
#192=ORIENTED_EDGE('',*,*,#154,.F.);
#193=ORIENTED_EDGE('',*,*,#155,.T.);
#194=ORIENTED_EDGE('',*,*,#156,.T.);
#195=ORIENTED_EDGE('',*,*,#155,.F.);
#196=ORIENTED_EDGE('',*,*,#157,.F.);
#197=ORIENTED_EDGE('',*,*,#158,.F.);
#198=ORIENTED_EDGE('',*,*,#159,.T.);
#199=ORIENTED_EDGE('',*,*,#154,.T.);
#200=ORIENTED_EDGE('',*,*,#159,.F.);
#201=ORIENTED_EDGE('',*,*,#157,.T.);
#202=ORIENTED_EDGE('',*,*,#158,.T.);
#203=ORIENTED_EDGE('',*,*,#160,.T.);
#204=ORIENTED_EDGE('',*,*,#161,.F.);
#205=ORIENTED_EDGE('',*,*,#160,.F.);
#206=ORIENTED_EDGE('',*,*,#162,.F.);
#207=ORIENTED_EDGE('',*,*,#163,.T.);
#208=ORIENTED_EDGE('',*,*,#164,.T.);
#209=ORIENTED_EDGE('',*,*,#163,.F.);
#210=ORIENTED_EDGE('',*,*,#165,.F.);
#211=ORIENTED_EDGE('',*,*,#166,.F.);
#212=ORIENTED_EDGE('',*,*,#167,.T.);
#213=ORIENTED_EDGE('',*,*,#162,.T.);
#214=ORIENTED_EDGE('',*,*,#167,.F.);
#215=ORIENTED_EDGE('',*,*,#165,.T.);
#216=ORIENTED_EDGE('',*,*,#166,.T.);
#217=ORIENTED_EDGE('',*,*,#168,.T.);
#218=ORIENTED_EDGE('',*,*,#169,.F.);
#219=ORIENTED_EDGE('',*,*,#168,.F.);
#220=ORIENTED_EDGE('',*,*,#169,.T.);
#221=ORIENTED_EDGE('',*,*,#161,.T.);
#222=ORIENTED_EDGE('',*,*,#164,.F.);
#223=ORIENTED_EDGE('',*,*,#156,.F.);
#224=ORIENTED_EDGE('',*,*,#150,.F.);
#225=ORIENTED_EDGE('',*,*,#170,.T.);
#226=ORIENTED_EDGE('',*,*,#171,.T.);
#227=ORIENTED_EDGE('',*,*,#172,.T.);
#228=ORIENTED_EDGE('',*,*,#173,.T.);
#229=ORIENTED_EDGE('',*,*,#174,.T.);
#230=ORIENTED_EDGE('',*,*,#175,.T.);
#231=ORIENTED_EDGE('',*,*,#176,.T.);
#232=ORIENTED_EDGE('',*,*,#146,.T.);
#233=ORIENTED_EDGE('',*,*,#177,.F.);
#234=ORIENTED_EDGE('',*,*,#170,.F.);
#235=ORIENTED_EDGE('',*,*,#178,.T.);
#236=ORIENTED_EDGE('',*,*,#147,.T.);
#237=ORIENTED_EDGE('',*,*,#176,.F.);
#238=ORIENTED_EDGE('',*,*,#175,.F.);
#239=ORIENTED_EDGE('',*,*,#179,.T.);
#240=ORIENTED_EDGE('',*,*,#151,.T.);
#241=ORIENTED_EDGE('',*,*,#148,.T.);
#242=ORIENTED_EDGE('',*,*,#178,.F.);
#243=ORIENTED_EDGE('',*,*,#174,.F.);
#244=ORIENTED_EDGE('',*,*,#180,.T.);
#245=ORIENTED_EDGE('',*,*,#152,.T.);
#246=ORIENTED_EDGE('',*,*,#179,.F.);
#247=ORIENTED_EDGE('',*,*,#173,.F.);
#248=ORIENTED_EDGE('',*,*,#181,.T.);
#249=ORIENTED_EDGE('',*,*,#153,.T.);
#250=ORIENTED_EDGE('',*,*,#180,.F.);
#251=ORIENTED_EDGE('',*,*,#172,.F.);
#252=ORIENTED_EDGE('',*,*,#177,.T.);
#253=ORIENTED_EDGE('',*,*,#145,.T.);
#254=ORIENTED_EDGE('',*,*,#181,.F.);
#255=ORIENTED_EDGE('',*,*,#171,.F.);
#256=CONICAL_SURFACE('',#291,1.55162884844712,0.78539816339745);
#257=CONICAL_SURFACE('',#293,2.75,0.785398163397451);
#258=CONICAL_SURFACE('',#299,2.6,0.785398163397448);
#259=CONICAL_SURFACE('',#308,1.17524047358084,0.785398163397448);
#260=ADVANCED_FACE('',(#30),#256,.F.);
#261=ADVANCED_FACE('',(#31),#257,.T.);
#262=ADVANCED_FACE('',(#32),#28,.T.);
#263=ADVANCED_FACE('',(#33),#258,.T.);
#264=ADVANCED_FACE('',(#34),#27,.F.);
#265=ADVANCED_FACE('',(#35),#29,.T.);
#266=ADVANCED_FACE('',(#36),#259,.T.);
#267=ADVANCED_FACE('',(#37),#17,.T.);
#268=ADVANCED_FACE('',(#38,#15),#18,.T.);
#269=ADVANCED_FACE('',(#39,#16),#19,.T.);
#270=ADVANCED_FACE('',(#40),#20,.F.);
#271=ADVANCED_FACE('',(#41),#21,.F.);
#272=ADVANCED_FACE('',(#42),#22,.F.);
#273=ADVANCED_FACE('',(#43),#23,.F.);
#274=ADVANCED_FACE('',(#44),#24,.F.);
#275=ADVANCED_FACE('',(#45),#25,.F.);
#276=ADVANCED_FACE('',(#46),#26,.F.);
#277=CLOSED_SHELL('',(#260,#261,#262,#263,#264,#265,#266,#267,#268,#269,
#270,#271,#272,#273,#274,#275,#276));
#278=DERIVED_UNIT_ELEMENT(#280,1.);
#279=DERIVED_UNIT_ELEMENT(#496,-3.);
#280=(
MASS_UNIT()
NAMED_UNIT(*)
SI_UNIT(.KILO.,.GRAM.)
);
#281=DERIVED_UNIT((#278,#279));
#282=MEASURE_REPRESENTATION_ITEM('density measure',
POSITIVE_RATIO_MEASURE(7850.),#281);
#283=PROPERTY_DEFINITION_REPRESENTATION(#288,#285);
#284=PROPERTY_DEFINITION_REPRESENTATION(#289,#286);
#285=REPRESENTATION('material name',(#287),#493);
#286=REPRESENTATION('density',(#282),#493);
#287=DESCRIPTIVE_REPRESENTATION_ITEM('Steel','Steel');
#288=PROPERTY_DEFINITION('material property','material name',#503);
#289=PROPERTY_DEFINITION('material property','density of part',#503);
#290=AXIS2_PLACEMENT_3D('',#398,#320,#321);
#291=AXIS2_PLACEMENT_3D('',#399,#322,#323);
#292=AXIS2_PLACEMENT_3D('',#419,#325,#326);
#293=AXIS2_PLACEMENT_3D('',#431,#327,#328);
#294=AXIS2_PLACEMENT_3D('',#433,#329,#330);
#295=AXIS2_PLACEMENT_3D('',#436,#332,#333);
#296=AXIS2_PLACEMENT_3D('',#437,#334,#335);
#297=AXIS2_PLACEMENT_3D('',#440,#336,#337);
#298=AXIS2_PLACEMENT_3D('',#441,#338,#339);
#299=AXIS2_PLACEMENT_3D('',#443,#341,#342);
#300=AXIS2_PLACEMENT_3D('',#446,#344,#345);
#301=AXIS2_PLACEMENT_3D('',#447,#346,#347);
#302=AXIS2_PLACEMENT_3D('',#449,#348,#349);
#303=AXIS2_PLACEMENT_3D('',#451,#350,#351);
#304=AXIS2_PLACEMENT_3D('',#452,#352,#353);
#305=AXIS2_PLACEMENT_3D('',#453,#354,#355);
#306=AXIS2_PLACEMENT_3D('',#456,#356,#357);
#307=AXIS2_PLACEMENT_3D('',#457,#358,#359);
#308=AXIS2_PLACEMENT_3D('',#459,#361,#362);
#309=AXIS2_PLACEMENT_3D('',#462,#364,#365);
#310=AXIS2_PLACEMENT_3D('',#463,#366,#367);
#311=AXIS2_PLACEMENT_3D('',#464,#368,#369);
#312=AXIS2_PLACEMENT_3D('',#465,#370,#371);
#313=AXIS2_PLACEMENT_3D('',#466,#372,#373);
#314=AXIS2_PLACEMENT_3D('',#479,#380,#381);
#315=AXIS2_PLACEMENT_3D('',#482,#384,#385);
#316=AXIS2_PLACEMENT_3D('',#484,#387,#388);
#317=AXIS2_PLACEMENT_3D('',#486,#390,#391);
#318=AXIS2_PLACEMENT_3D('',#488,#393,#394);
#319=AXIS2_PLACEMENT_3D('',#490,#396,#397);
#320=DIRECTION('axis',(0.,0.,1.));
#321=DIRECTION('refdir',(1.,0.,0.));
#322=DIRECTION('center_axis',(-1.,0.,-1.2490009027033E-16));
#323=DIRECTION('ref_axis',(-1.2490009027033E-16,0.,1.));
#324=DIRECTION('',(-0.707106781186546,-8.65956056235495E-17,-0.707106781186549));
#325=DIRECTION('center_axis',(-1.,0.,-1.2490009027033E-16));
#326=DIRECTION('ref_axis',(-1.2490009027033E-16,0.,1.));
#327=DIRECTION('center_axis',(1.,1.44039007907971E-56,1.2490009027033E-16));
#328=DIRECTION('ref_axis',(-1.44039007907971E-56,1.,-1.79904850901544E-72));
#329=DIRECTION('center_axis',(1.,1.44039007907971E-56,1.2490009027033E-16));
#330=DIRECTION('ref_axis',(-1.44039007907971E-56,1.,-1.79904850901544E-72));
#331=DIRECTION('',(-0.707106781186545,0.70710678118655,-1.72209517741246E-18));
#332=DIRECTION('center_axis',(1.,1.44039007907971E-56,1.2490009027033E-16));
#333=DIRECTION('ref_axis',(-1.44039007907971E-56,1.,-1.79904850901544E-72));
#334=DIRECTION('center_axis',(1.,1.44039007907971E-56,1.2490009027033E-16));
#335=DIRECTION('ref_axis',(-1.44039007907971E-56,1.,-1.79904850901544E-72));
#336=DIRECTION('center_axis',(1.,1.44039007907971E-56,1.2490009027033E-16));
#337=DIRECTION('ref_axis',(-1.44039007907971E-56,1.,-1.79904850901544E-72));
#338=DIRECTION('center_axis',(1.,1.44039007907971E-56,1.2490009027033E-16));
#339=DIRECTION('ref_axis',(-1.44039007907971E-56,1.,-1.79904850901544E-72));
#340=DIRECTION('',(-1.,-1.44039007907971E-56,-1.2490009027033E-16));
#341=DIRECTION('center_axis',(-1.,-1.44039007907971E-56,-1.2490009027033E-16));
#342=DIRECTION('ref_axis',(1.44039007907971E-56,-1.,1.79904850901544E-72));
#343=DIRECTION('',(0.707106781186548,-0.707106781186548,1.74913306424512E-16));
#344=DIRECTION('center_axis',(1.,1.44039007907971E-56,1.2490009027033E-16));
#345=DIRECTION('ref_axis',(-1.44039007907971E-56,1.,-1.79904850901544E-72));
#346=DIRECTION('center_axis',(1.,1.44039007907971E-56,1.2490009027033E-16));
#347=DIRECTION('ref_axis',(0.,1.,0.));
#348=DIRECTION('center_axis',(1.,1.44039007907971E-56,1.2490009027033E-16));
#349=DIRECTION('ref_axis',(-1.44039007907971E-56,1.,-1.79904850901544E-72));
#350=DIRECTION('center_axis',(-1.2490009027033E-16,-1.54197642309049E-16,
1.));
#351=DIRECTION('ref_axis',(0.,-1.,-1.54197642309049E-16));
#352=DIRECTION('center_axis',(1.,1.44039007907971E-56,1.2490009027033E-16));
#353=DIRECTION('ref_axis',(-1.44039007907971E-56,1.,-1.79904850901544E-72));
#354=DIRECTION('center_axis',(1.,1.44039007907971E-56,1.2490009027033E-16));
#355=DIRECTION('ref_axis',(-1.44039007907971E-56,1.,-1.79904850901544E-72));
#356=DIRECTION('center_axis',(1.,1.44039007907971E-56,1.2490009027033E-16));
#357=DIRECTION('ref_axis',(-1.44039007907971E-56,1.,-1.79904850901544E-72));
#358=DIRECTION('center_axis',(1.,1.44039007907971E-56,1.2490009027033E-16));
#359=DIRECTION('ref_axis',(-1.44039007907971E-56,1.,-1.79904850901544E-72));
#360=DIRECTION('',(-1.,-1.44039007907971E-56,-1.2490009027033E-16));
#361=DIRECTION('center_axis',(-1.,-1.44039007907971E-56,-1.2490009027033E-16));
#362=DIRECTION('ref_axis',(1.44039007907971E-56,-1.,1.79904850901544E-72));
#363=DIRECTION('',(0.707106781186548,-0.707106781186547,1.74913306424512E-16));
#364=DIRECTION('center_axis',(1.,1.44039007907971E-56,1.2490009027033E-16));
#365=DIRECTION('ref_axis',(-1.44039007907971E-56,1.,-1.79904850901544E-72));
#366=DIRECTION('center_axis',(1.,1.44039007907971E-56,1.2490009027033E-16));
#367=DIRECTION('ref_axis',(-1.44039007907971E-56,1.,-1.79904850901544E-72));
#368=DIRECTION('center_axis',(1.,1.44039007907971E-56,1.2490009027033E-16));
#369=DIRECTION('ref_axis',(-1.44039007907971E-56,1.,-1.79904850901544E-72));
#370=DIRECTION('center_axis',(-1.,-1.44039007907971E-56,-1.2490009027033E-16));
#371=DIRECTION('ref_axis',(1.44039007907971E-56,-1.,1.79904850901544E-72));
#372=DIRECTION('center_axis',(1.,1.44039007907971E-56,1.2490009027033E-16));
#373=DIRECTION('ref_axis',(-1.44039007907971E-56,1.,-1.79904850901544E-72));
#374=DIRECTION('',(-1.08166651109075E-16,0.5,0.866025403784438));
#375=DIRECTION('',(-1.44039007907971E-56,1.,-1.79904850901544E-72));
#376=DIRECTION('',(1.08166651109075E-16,0.5,-0.866025403784439));
#377=DIRECTION('',(1.08166651109075E-16,-0.5,-0.866025403784438));
#378=DIRECTION('',(1.44039007907971E-56,-1.,1.79904850901544E-72));
#379=DIRECTION('',(-1.08166651109075E-16,-0.5,0.866025403784439));
#380=DIRECTION('center_axis',(-6.24500451351651E-17,-0.866025403784438,
0.5));
#381=DIRECTION('ref_axis',(-1.08166651109075E-16,0.5,0.866025403784438));
#382=DIRECTION('',(-1.,0.,-1.2490009027033E-16));
#383=DIRECTION('',(-1.,0.,-1.2490009027033E-16));
#384=DIRECTION('center_axis',(6.2450045135165E-17,-0.866025403784439,-0.5));
#385=DIRECTION('ref_axis',(-1.08166651109075E-16,-0.5,0.866025403784439));
#386=DIRECTION('',(-1.,0.,-1.2490009027033E-16));
#387=DIRECTION('center_axis',(1.2490009027033E-16,0.,-1.));
#388=DIRECTION('ref_axis',(-1.,0.,-1.2490009027033E-16));
#389=DIRECTION('',(-1.,0.,-1.2490009027033E-16));
#390=DIRECTION('center_axis',(6.24500451351651E-17,0.866025403784439,-0.5));
#391=DIRECTION('ref_axis',(1.08166651109075E-16,-0.5,-0.866025403784439));
#392=DIRECTION('',(-1.,0.,-1.2490009027033E-16));
#393=DIRECTION('center_axis',(-6.2450045135165E-17,0.866025403784439,0.5));
#394=DIRECTION('ref_axis',(1.08166651109075E-16,0.5,-0.866025403784439));
#395=DIRECTION('',(-1.,0.,-1.2490009027033E-16));
#396=DIRECTION('center_axis',(-1.2490009027033E-16,0.,1.));
#397=DIRECTION('ref_axis',(1.,0.,1.2490009027033E-16));
#398=CARTESIAN_POINT('',(0.,0.,0.));
#399=CARTESIAN_POINT('Origin',(-3.21443718195219,-6.4817553558587E-56,1.2855628180478));
#400=CARTESIAN_POINT('',(-3.10618400647914,-0.721687836487032,2.5355628180478));
#401=CARTESIAN_POINT('',(-3.10618400647914,0.721687836487032,2.5355628180478));
#402=CARTESIAN_POINT('Ctrl Pts',(-3.10618400647913,-0.721687836487016,2.5355628180478));
#403=CARTESIAN_POINT('Ctrl Pts',(-2.74534008823563,-7.7715611723761E-16,
2.5355628180478));
#404=CARTESIAN_POINT('Ctrl Pts',(-3.10618400647913,0.721687836487014,2.5355628180478));
#405=CARTESIAN_POINT('',(-3.10618400647914,-1.44337567297406,1.28556281804781));
#406=CARTESIAN_POINT('Ctrl Pts',(-3.10618400647913,-1.44337567297406,1.28556281804782));
#407=CARTESIAN_POINT('Ctrl Pts',(-2.74534008823563,-1.08253175473055,1.91056281804781));
#408=CARTESIAN_POINT('Ctrl Pts',(-3.10618400647913,-0.721687836487042,2.53556281804779));
#409=CARTESIAN_POINT('',(-3.10618400647914,-0.721687836487032,0.0355628180478049));
#410=CARTESIAN_POINT('Ctrl Pts',(-3.10618400647913,-0.721687836487041,0.0355628180478204));
#411=CARTESIAN_POINT('Ctrl Pts',(-2.74534008823563,-1.08253175473055,0.660562818047805));
#412=CARTESIAN_POINT('Ctrl Pts',(-3.10618400647913,-1.44337567297406,1.28556281804779));
#413=CARTESIAN_POINT('',(-2.91280833350508,-2.59064658124854E-16,0.0355628180478049));
#414=CARTESIAN_POINT('Ctrl Pts',(-3.10618400647913,-0.721687836487014,0.0355628180478049));
#415=CARTESIAN_POINT('Ctrl Pts',(-2.91280833350508,-0.334936490538896,0.0355628180478049));
#416=CARTESIAN_POINT('Ctrl Pts',(-2.91280833350508,-3.65048466356288E-16,
0.0355628180478049));
#417=CARTESIAN_POINT('',(-3.21443718195219,-1.90019730271546E-16,-0.266066030399315));
#418=CARTESIAN_POINT('',(-3.21443718195219,-1.90019730271546E-16,-0.266066030399315));
#419=CARTESIAN_POINT('Origin',(-3.21443718195219,-6.4817553558587E-56,1.2855628180478));
#420=CARTESIAN_POINT('',(-3.10618400647914,0.721687836487032,0.0355628180478049));
#421=CARTESIAN_POINT('Ctrl Pts',(-2.91280833350508,-3.65048466356288E-16,
0.0355628180478049));
#422=CARTESIAN_POINT('Ctrl Pts',(-2.91280833350508,0.334936490538896,0.0355628180478049));
#423=CARTESIAN_POINT('Ctrl Pts',(-3.10618400647913,0.721687836487015,0.0355628180478049));
#424=CARTESIAN_POINT('',(-3.10618400647914,1.44337567297406,1.2855628180478));
#425=CARTESIAN_POINT('Ctrl Pts',(-3.10618400647913,1.44337567297405,1.28556281804779));
#426=CARTESIAN_POINT('Ctrl Pts',(-2.74534008823563,1.08253175473055,0.660562818047805));
#427=CARTESIAN_POINT('Ctrl Pts',(-3.10618400647913,0.721687836487041,0.0355628180478207));
#428=CARTESIAN_POINT('Ctrl Pts',(-3.10618400647913,0.721687836487041,2.53556281804779));
#429=CARTESIAN_POINT('Ctrl Pts',(-2.74534008823563,1.08253175473055,1.9105628180478));
#430=CARTESIAN_POINT('Ctrl Pts',(-3.10618400647913,1.44337567297406,1.28556281804782));
#431=CARTESIAN_POINT('Origin',(-3.06443718195219,2.16058511861957E-57,1.2855628180478));
#432=CARTESIAN_POINT('',(-3.06443718195219,-2.75,1.2855628180478));
#433=CARTESIAN_POINT('Origin',(-3.06443718195219,2.16058511861957E-57,1.2855628180478));
#434=CARTESIAN_POINT('',(-3.21443718195219,-2.6,1.2855628180478));
#435=CARTESIAN_POINT('',(-3.06443718195219,-2.75,1.2855628180478));
#436=CARTESIAN_POINT('Origin',(-3.21443718195219,0.,1.2855628180478));
#437=CARTESIAN_POINT('Origin',(5.7855628180478,1.29635107117174E-55,1.28556281804781));
#438=CARTESIAN_POINT('',(-0.364437181952194,2.75,1.28556281804781));
#439=CARTESIAN_POINT('',(-0.364437181952193,-2.75,1.2855628180478));
#440=CARTESIAN_POINT('Origin',(-0.364437181952194,4.10511172537718E-56,
1.2855628180478));
#441=CARTESIAN_POINT('Origin',(-0.364437181952194,4.10511172537718E-56,
1.2855628180478));
#442=CARTESIAN_POINT('',(5.7855628180478,-2.75,1.28556281804781));
#443=CARTESIAN_POINT('Origin',(-0.214437181952194,4.32117023723914E-56,
1.2855628180478));
#444=CARTESIAN_POINT('',(-0.214437181952194,2.6,1.2855628180478));
#445=CARTESIAN_POINT('',(-0.214437181952194,2.6,1.2855628180478));
#446=CARTESIAN_POINT('Origin',(-0.214437181952194,4.32117023723914E-56,
1.2855628180478));
#447=CARTESIAN_POINT('Origin',(-0.0644371819521941,0.,1.2855628180478));
#448=CARTESIAN_POINT('',(-0.0644371819521941,-1.5,1.2855628180478));
#449=CARTESIAN_POINT('Origin',(-0.0644371819521941,4.53722874910109E-56,
1.2855628180478));
#450=CARTESIAN_POINT('',(-0.214437181952194,-1.65,1.2855628180478));
#451=CARTESIAN_POINT('Origin',(-0.0644371819521941,-1.65,1.2855628180478));
#452=CARTESIAN_POINT('Origin',(-0.214437181952194,4.32117023723914E-56,
1.2855628180478));
#453=CARTESIAN_POINT('Origin',(5.7855628180478,1.29635107117174E-55,1.28556281804781));
#454=CARTESIAN_POINT('',(5.46080329162864,1.5,1.28556281804781));
#455=CARTESIAN_POINT('',(5.46080329162864,-1.5,1.28556281804781));
#456=CARTESIAN_POINT('Origin',(5.46080329162864,1.24957303117766E-55,1.28556281804781));
#457=CARTESIAN_POINT('Origin',(5.46080329162864,1.24957303117766E-55,1.28556281804781));
#458=CARTESIAN_POINT('',(5.7855628180478,-1.5,1.28556281804781));
#459=CARTESIAN_POINT('Origin',(5.7855628180478,1.29635107117174E-55,1.28556281804781));
#460=CARTESIAN_POINT('',(5.7855628180478,1.17524047358084,1.28556281804781));
#461=CARTESIAN_POINT('',(5.7855628180478,1.17524047358084,1.28556281804781));
#462=CARTESIAN_POINT('Origin',(5.7855628180478,1.29635107117174E-55,1.28556281804781));
#463=CARTESIAN_POINT('Origin',(5.7855628180478,1.17524047358084,1.28556281804781));
#464=CARTESIAN_POINT('Origin',(-0.214437181952194,2.6,1.2855628180478));
#465=CARTESIAN_POINT('Origin',(-3.21443718195219,2.69714065388464E-112,
1.2855628180478));
#466=CARTESIAN_POINT('Origin',(-1.21443718195219,2.6,1.2855628180478));
#467=CARTESIAN_POINT('',(-1.21443718195219,-1.44337567297406,1.28556281804781));
#468=CARTESIAN_POINT('',(-1.21443718195219,-0.721687836487032,2.53556281804781));
#469=CARTESIAN_POINT('',(-1.21443718195219,-1.44337567297406,1.28556281804781));
#470=CARTESIAN_POINT('',(-1.21443718195219,0.721687836487032,2.53556281804781));
#471=CARTESIAN_POINT('',(-1.21443718195219,-0.721687836487032,2.53556281804781));
#472=CARTESIAN_POINT('',(-1.21443718195219,1.44337567297406,1.2855628180478));
#473=CARTESIAN_POINT('',(-1.21443718195219,0.721687836487032,2.53556281804781));
#474=CARTESIAN_POINT('',(-1.21443718195219,0.721687836487032,0.0355628180478053));
#475=CARTESIAN_POINT('',(-1.21443718195219,1.44337567297406,1.2855628180478));
#476=CARTESIAN_POINT('',(-1.21443718195219,-0.721687836487033,0.0355628180478049));
#477=CARTESIAN_POINT('',(-1.21443718195219,0.721687836487032,0.0355628180478049));
#478=CARTESIAN_POINT('',(-1.21443718195219,-0.721687836487032,0.0355628180478049));
#479=CARTESIAN_POINT('Origin',(3.60437589717767,-1.44337567297406,1.28556281804781));
#480=CARTESIAN_POINT('',(3.60437589717767,-1.44337567297406,1.28556281804781));
#481=CARTESIAN_POINT('',(3.60437589717767,-0.721687836487032,2.53556281804781));
#482=CARTESIAN_POINT('Origin',(3.60437589717767,-0.721687836487032,0.0355628180478056));
#483=CARTESIAN_POINT('',(3.60437589717767,-0.721687836487032,0.0355628180478056));
#484=CARTESIAN_POINT('Origin',(3.60437589717767,0.721687836487032,0.0355628180478056));
#485=CARTESIAN_POINT('',(3.60437589717767,0.721687836487032,0.0355628180478056));
#486=CARTESIAN_POINT('Origin',(3.60437589717767,1.44337567297406,1.28556281804781));
#487=CARTESIAN_POINT('',(3.60437589717767,1.44337567297406,1.28556281804781));
#488=CARTESIAN_POINT('Origin',(3.60437589717767,0.721687836487032,2.53556281804781));
#489=CARTESIAN_POINT('',(3.60437589717767,0.721687836487032,2.53556281804781));
#490=CARTESIAN_POINT('Origin',(3.60437589717767,-0.721687836487032,2.53556281804781));
#491=UNCERTAINTY_MEASURE_WITH_UNIT(LENGTH_MEASURE(0.01),#495,
'DISTANCE_ACCURACY_VALUE',
'Maximum model space distance between geometric entities at asserted c
onnectivities');
#492=UNCERTAINTY_MEASURE_WITH_UNIT(LENGTH_MEASURE(0.01),#495,
'DISTANCE_ACCURACY_VALUE',
'Maximum model space distance between geometric entities at asserted c
onnectivities');
#493=(
GEOMETRIC_REPRESENTATION_CONTEXT(3)
GLOBAL_UNCERTAINTY_ASSIGNED_CONTEXT((#491))
GLOBAL_UNIT_ASSIGNED_CONTEXT((#495,#497,#498))
REPRESENTATION_CONTEXT('','3D')
);
#494=(
GEOMETRIC_REPRESENTATION_CONTEXT(3)
GLOBAL_UNCERTAINTY_ASSIGNED_CONTEXT((#492))
GLOBAL_UNIT_ASSIGNED_CONTEXT((#495,#497,#498))
REPRESENTATION_CONTEXT('','3D')
);
#495=(
LENGTH_UNIT()
NAMED_UNIT(*)
SI_UNIT(.MILLI.,.METRE.)
);
#496=(
LENGTH_UNIT()
NAMED_UNIT(*)
SI_UNIT($,.METRE.)
);
#497=(
NAMED_UNIT(*)
PLANE_ANGLE_UNIT()
SI_UNIT($,.RADIAN.)
);
#498=(
NAMED_UNIT(*)
SI_UNIT($,.STERADIAN.)
SOLID_ANGLE_UNIT()
);
#499=SHAPE_DEFINITION_REPRESENTATION(#500,#501);
#500=PRODUCT_DEFINITION_SHAPE('',$,#503);
#501=SHAPE_REPRESENTATION('',(#290),#493);
#502=PRODUCT_DEFINITION_CONTEXT('part definition',#507,'design');
#503=PRODUCT_DEFINITION('M3x6','M3x6 v4',#504,#502);
#504=PRODUCT_DEFINITION_FORMATION('',$,#509);
#505=PRODUCT_RELATED_PRODUCT_CATEGORY('M3x6 v4','M3x6 v4',(#509));
#506=APPLICATION_PROTOCOL_DEFINITION('international standard',
'automotive_design',2009,#507);
#507=APPLICATION_CONTEXT(
'Core Data for Automotive Mechanical Design Process');
#508=PRODUCT_CONTEXT('part definition',#507,'mechanical');
#509=PRODUCT('M3x6','M3x6 v4',$,(#508));
#510=PRESENTATION_STYLE_ASSIGNMENT((#512));
#511=PRESENTATION_STYLE_ASSIGNMENT((#513));
#512=SURFACE_STYLE_USAGE(.BOTH.,#514);
#513=SURFACE_STYLE_USAGE(.BOTH.,#515);
#514=SURFACE_SIDE_STYLE('',(#516));
#515=SURFACE_SIDE_STYLE('',(#517));
#516=SURFACE_STYLE_FILL_AREA(#518);
#517=SURFACE_STYLE_FILL_AREA(#519);
#518=FILL_AREA_STYLE('Steel - Satin',(#520));
#519=FILL_AREA_STYLE(
'PA 11 - Nylon- HP 11-30 (with EOS P 396 3D Printer)',(#521));
#520=FILL_AREA_STYLE_COLOUR('Steel - Satin',#522);
#521=FILL_AREA_STYLE_COLOUR(
'PA 11 - Nylon- HP 11-30 (with EOS P 396 3D Printer)',#523);
#522=COLOUR_RGB('Steel - Satin',0.627450980392157,0.627450980392157,0.627450980392157);
#523=COLOUR_RGB('PA 11 - Nylon- HP 11-30 (with EOS P 396 3D Printer)',0.247058823529412,
0.247058823529412,0.247058823529412);
ENDSEC;
END-ISO-10303-21;
