ISO-10303-21;
HEADER;
/* Generated by software containing ST-Developer
 * from STEP Tools, Inc. (www.steptools.com) 
 */

FILE_DESCRIPTION(
/* description */ ('FreeCAD Model'),
/* implementation_level */ '2;1');

FILE_NAME(
/* name */ '10A-fuse.step',
/* time_stamp */ '2024-09-27T17:38:27+02:00',
/* author */ (''),
/* organization */ (''),
/* preprocessor_version */ 'ST-DEVELOPER v20',
/* originating_system */ 'Autodesk Translation Framework v13.20.0.188',

/* authorisation */ '');

FILE_SCHEMA (('AUTOMOTIVE_DESIGN { 1 0 10303 214 3 1 1 }'));
ENDSEC;

DATA;
#10=MECHANICAL_DESIGN_GEOMETRIC_PRESENTATION_REPRESENTATION('',(#27,#28),
#225);
#11=ITEM_DEFINED_TRANSFORMATION($,$,#129,#145);
#12=ITEM_DEFINED_TRANSFORMATION($,$,#129,#146);
#13=ITEM_DEFINED_TRANSFORMATION($,$,#139,#147);
#14=(
REPRESENTATION_RELATIONSHIP($,$,#240,#239)
REPRESENTATION_RELATIONSHIP_WITH_TRANSFORMATION(#11)
SHAPE_REPRESENTATION_RELATIONSHIP()
);
#15=(
REPRESENTATION_RELATIONSHIP($,$,#240,#239)
REPRESENTATION_RELATIONSHIP_WITH_TRANSFORMATION(#12)
SHAPE_REPRESENTATION_RELATIONSHIP()
);
#16=(
REPRESENTATION_RELATIONSHIP($,$,#241,#239)
REPRESENTATION_RELATIONSHIP_WITH_TRANSFORMATION(#13)
SHAPE_REPRESENTATION_RELATIONSHIP()
);
#17=CONTEXT_DEPENDENT_SHAPE_REPRESENTATION(#14,#236);
#18=CONTEXT_DEPENDENT_SHAPE_REPRESENTATION(#15,#237);
#19=CONTEXT_DEPENDENT_SHAPE_REPRESENTATION(#16,#238);
#20=NEXT_ASSEMBLY_USAGE_OCCURRENCE('FRONT:1','FRONT:1','FRONT:1',#243,#244,
'FRONT:1');
#21=NEXT_ASSEMBLY_USAGE_OCCURRENCE('FRONT:2','FRONT:2','FRONT:2',#243,#244,
'FRONT:2');
#22=NEXT_ASSEMBLY_USAGE_OCCURRENCE('CYLINDER_5_10:1','CYLINDER_5_10:1',
'CYLINDER_5_10:1',#243,#245,'CYLINDER_5_10:1');
#23=SHAPE_REPRESENTATION_RELATIONSHIP('SRR','None',#240,#25);
#24=SHAPE_REPRESENTATION_RELATIONSHIP('SRR','None',#241,#26);
#25=ADVANCED_BREP_SHAPE_REPRESENTATION('',(#29),#223);
#26=ADVANCED_BREP_SHAPE_REPRESENTATION('',(#30),#224);
#27=STYLED_ITEM('',(#259),#29);
#28=STYLED_ITEM('',(#260),#30);
#29=MANIFOLD_SOLID_BREP('Body1',#103);
#30=MANIFOLD_SOLID_BREP('Body1',#104);
#31=LINE('',#204,#33);
#32=LINE('',#211,#34);
#33=VECTOR('',#168,2.6);
#34=VECTOR('',#177,2.5);
#35=CYLINDRICAL_SURFACE('',#136,2.6);
#36=CYLINDRICAL_SURFACE('',#140,2.5);
#37=TOROIDAL_SURFACE('',#132,2.1,0.5);
#38=FACE_OUTER_BOUND('',#45,.T.);
#39=FACE_OUTER_BOUND('',#46,.T.);
#40=FACE_OUTER_BOUND('',#47,.T.);
#41=FACE_OUTER_BOUND('',#48,.T.);
#42=FACE_OUTER_BOUND('',#49,.T.);
#43=FACE_OUTER_BOUND('',#50,.T.);
#44=FACE_OUTER_BOUND('',#51,.T.);
#45=EDGE_LOOP('',(#74));
#46=EDGE_LOOP('',(#75,#76,#77,#78,#79));
#47=EDGE_LOOP('',(#80,#81,#82,#83,#84));
#48=EDGE_LOOP('',(#85));
#49=EDGE_LOOP('',(#86,#87,#88,#89));
#50=EDGE_LOOP('',(#90));
#51=EDGE_LOOP('',(#91));
#52=CIRCLE('',#131,2.1);
#53=CIRCLE('',#133,2.6);
#54=CIRCLE('',#134,0.5);
#55=CIRCLE('',#135,2.6);
#56=CIRCLE('',#137,2.6);
#57=CIRCLE('',#141,2.5);
#58=CIRCLE('',#142,2.5);
#59=VERTEX_POINT('',#193);
#60=VERTEX_POINT('',#196);
#61=VERTEX_POINT('',#197);
#62=VERTEX_POINT('',#202);
#63=VERTEX_POINT('',#208);
#64=VERTEX_POINT('',#210);
#65=EDGE_CURVE('',#59,#59,#52,.T.);
#66=EDGE_CURVE('',#60,#61,#53,.T.);
#67=EDGE_CURVE('',#61,#59,#54,.T.);
#68=EDGE_CURVE('',#61,#60,#55,.T.);
#69=EDGE_CURVE('',#62,#62,#56,.T.);
#70=EDGE_CURVE('',#62,#60,#31,.T.);
#71=EDGE_CURVE('',#63,#63,#57,.T.);
#72=EDGE_CURVE('',#63,#64,#32,.T.);
#73=EDGE_CURVE('',#64,#64,#58,.T.);
#74=ORIENTED_EDGE('',*,*,#65,.T.);
#75=ORIENTED_EDGE('',*,*,#66,.T.);
#76=ORIENTED_EDGE('',*,*,#67,.T.);
#77=ORIENTED_EDGE('',*,*,#65,.F.);
#78=ORIENTED_EDGE('',*,*,#67,.F.);
#79=ORIENTED_EDGE('',*,*,#68,.T.);
#80=ORIENTED_EDGE('',*,*,#69,.F.);
#81=ORIENTED_EDGE('',*,*,#70,.T.);
#82=ORIENTED_EDGE('',*,*,#68,.F.);
#83=ORIENTED_EDGE('',*,*,#66,.F.);
#84=ORIENTED_EDGE('',*,*,#70,.F.);
#85=ORIENTED_EDGE('',*,*,#69,.T.);
#86=ORIENTED_EDGE('',*,*,#71,.T.);
#87=ORIENTED_EDGE('',*,*,#72,.T.);
#88=ORIENTED_EDGE('',*,*,#73,.F.);
#89=ORIENTED_EDGE('',*,*,#72,.F.);
#90=ORIENTED_EDGE('',*,*,#71,.F.);
#91=ORIENTED_EDGE('',*,*,#73,.T.);
#92=PLANE('',#130);
#93=PLANE('',#138);
#94=PLANE('',#143);
#95=PLANE('',#144);
#96=ADVANCED_FACE('',(#38),#92,.F.);
#97=ADVANCED_FACE('',(#39),#37,.T.);
#98=ADVANCED_FACE('',(#40),#35,.T.);
#99=ADVANCED_FACE('',(#41),#93,.T.);
#100=ADVANCED_FACE('',(#42),#36,.T.);
#101=ADVANCED_FACE('',(#43),#94,.F.);
#102=ADVANCED_FACE('',(#44),#95,.T.);
#103=CLOSED_SHELL('',(#96,#97,#98,#99));
#104=CLOSED_SHELL('',(#100,#101,#102));
#105=DERIVED_UNIT_ELEMENT(#109,1.);
#106=DERIVED_UNIT_ELEMENT(#227,-3.);
#107=DERIVED_UNIT_ELEMENT(#109,1.);
#108=DERIVED_UNIT_ELEMENT(#227,-3.);
#109=(
MASS_UNIT()
NAMED_UNIT(*)
SI_UNIT(.KILO.,.GRAM.)
);
#110=DERIVED_UNIT((#105,#106));
#111=DERIVED_UNIT((#107,#108));
#112=MEASURE_REPRESENTATION_ITEM('density measure',
POSITIVE_RATIO_MEASURE(7850.),#110);
#113=MEASURE_REPRESENTATION_ITEM('density measure',
POSITIVE_RATIO_MEASURE(7850.),#111);
#114=PROPERTY_DEFINITION_REPRESENTATION(#124,#118);
#115=PROPERTY_DEFINITION_REPRESENTATION(#125,#119);
#116=PROPERTY_DEFINITION_REPRESENTATION(#126,#120);
#117=PROPERTY_DEFINITION_REPRESENTATION(#127,#121);
#118=REPRESENTATION('material name',(#122),#223);
#119=REPRESENTATION('density',(#112),#223);
#120=REPRESENTATION('material name',(#123),#224);
#121=REPRESENTATION('density',(#113),#224);
#122=DESCRIPTIVE_REPRESENTATION_ITEM('Steel','Steel');
#123=DESCRIPTIVE_REPRESENTATION_ITEM('Steel','Steel');
#124=PROPERTY_DEFINITION('material property','material name',#244);
#125=PROPERTY_DEFINITION('material property','density of part',#244);
#126=PROPERTY_DEFINITION('material property','material name',#245);
#127=PROPERTY_DEFINITION('material property','density of part',#245);
#128=AXIS2_PLACEMENT_3D('',#190,#148,#149);
#129=AXIS2_PLACEMENT_3D('',#191,#150,#151);
#130=AXIS2_PLACEMENT_3D('',#192,#152,#153);
#131=AXIS2_PLACEMENT_3D('',#194,#154,#155);
#132=AXIS2_PLACEMENT_3D('',#195,#156,#157);
#133=AXIS2_PLACEMENT_3D('',#198,#158,#159);
#134=AXIS2_PLACEMENT_3D('',#199,#160,#161);
#135=AXIS2_PLACEMENT_3D('',#200,#162,#163);
#136=AXIS2_PLACEMENT_3D('',#201,#164,#165);
#137=AXIS2_PLACEMENT_3D('',#203,#166,#167);
#138=AXIS2_PLACEMENT_3D('',#205,#169,#170);
#139=AXIS2_PLACEMENT_3D('',#206,#171,#172);
#140=AXIS2_PLACEMENT_3D('',#207,#173,#174);
#141=AXIS2_PLACEMENT_3D('',#209,#175,#176);
#142=AXIS2_PLACEMENT_3D('',#212,#178,#179);
#143=AXIS2_PLACEMENT_3D('',#213,#180,#181);
#144=AXIS2_PLACEMENT_3D('',#214,#182,#183);
#145=AXIS2_PLACEMENT_3D('',#215,#184,#185);
#146=AXIS2_PLACEMENT_3D('',#216,#186,#187);
#147=AXIS2_PLACEMENT_3D('',#217,#188,#189);
#148=DIRECTION('axis',(0.,0.,1.));
#149=DIRECTION('refdir',(1.,0.,0.));
#150=DIRECTION('axis',(0.,0.,1.));
#151=DIRECTION('refdir',(1.,0.,0.));
#152=DIRECTION('center_axis',(0.,0.,1.));
#153=DIRECTION('ref_axis',(0.,-1.,0.));
#154=DIRECTION('center_axis',(0.,0.,-1.));
#155=DIRECTION('ref_axis',(0.,-1.,0.));
#156=DIRECTION('center_axis',(0.,0.,1.));
#157=DIRECTION('ref_axis',(0.08391504817043,-0.996472912171,0.));
#158=DIRECTION('center_axis',(0.,0.,-1.));
#159=DIRECTION('ref_axis',(0.,-1.,0.));
#160=DIRECTION('center_axis',(-0.996472912171,-0.0839150481704302,0.));
#161=DIRECTION('ref_axis',(-0.0839150481704302,0.996472912171,0.));
#162=DIRECTION('center_axis',(0.,0.,-1.));
#163=DIRECTION('ref_axis',(0.,-1.,0.));
#164=DIRECTION('center_axis',(0.,0.,1.));
#165=DIRECTION('ref_axis',(0.,-1.,0.));
#166=DIRECTION('center_axis',(0.,0.,1.));
#167=DIRECTION('ref_axis',(0.,-1.,0.));
#168=DIRECTION('',(0.,0.,-1.));
#169=DIRECTION('center_axis',(0.,0.,1.));
#170=DIRECTION('ref_axis',(0.,-1.,0.));
#171=DIRECTION('axis',(0.,0.,1.));
#172=DIRECTION('refdir',(1.,0.,0.));
#173=DIRECTION('center_axis',(0.,0.,-1.));
#174=DIRECTION('ref_axis',(1.,0.,0.));
#175=DIRECTION('center_axis',(0.,0.,1.));
#176=DIRECTION('ref_axis',(1.,0.,0.));
#177=DIRECTION('',(0.,0.,1.));
#178=DIRECTION('center_axis',(0.,0.,1.));
#179=DIRECTION('ref_axis',(1.,0.,0.));
#180=DIRECTION('center_axis',(0.,0.,1.));
#181=DIRECTION('ref_axis',(1.,0.,0.));
#182=DIRECTION('center_axis',(0.,0.,1.));
#183=DIRECTION('ref_axis',(1.,0.,0.));
#184=DIRECTION('',(0.,-1.,-3.60822483003176E-16));
#185=DIRECTION('',(1.,0.,0.));
#186=DIRECTION('',(0.,1.,3.60822483003176E-16));
#187=DIRECTION('',(-1.,0.,0.));
#188=DIRECTION('',(0.,-1.,-3.60822483003176E-16));
#189=DIRECTION('',(1.,0.,0.));
#190=CARTESIAN_POINT('',(0.,0.,0.));
#191=CARTESIAN_POINT('',(0.,0.,0.));
#192=CARTESIAN_POINT('Origin',(0.,0.,0.));
#193=CARTESIAN_POINT('',(-0.176221601157903,2.0925931155591,0.));
#194=CARTESIAN_POINT('Origin',(0.,0.,0.));
#195=CARTESIAN_POINT('Origin',(0.,0.,0.5));
#196=CARTESIAN_POINT('',(0.,2.6,0.5));
#197=CARTESIAN_POINT('',(-0.218179125243118,2.5908295716446,0.5));
#198=CARTESIAN_POINT('Origin',(0.,0.,0.5));
#199=CARTESIAN_POINT('Origin',(-0.176221601157903,2.0925931155591,0.5));
#200=CARTESIAN_POINT('Origin',(0.,0.,0.5));
#201=CARTESIAN_POINT('Origin',(0.,0.,0.));
#202=CARTESIAN_POINT('',(-3.18408167778312E-16,2.6,5.));
#203=CARTESIAN_POINT('Origin',(0.,0.,5.));
#204=CARTESIAN_POINT('',(-3.18408167778312E-16,2.6,0.));
#205=CARTESIAN_POINT('Origin',(0.,0.,5.));
#206=CARTESIAN_POINT('',(0.,0.,0.));
#207=CARTESIAN_POINT('Origin',(0.,0.,0.));
#208=CARTESIAN_POINT('',(-2.5,3.06161699786838E-16,0.));
#209=CARTESIAN_POINT('Origin',(0.,0.,0.));
#210=CARTESIAN_POINT('',(-2.5,3.06161699786838E-16,10.));
#211=CARTESIAN_POINT('',(-2.5,3.06161699786838E-16,0.));
#212=CARTESIAN_POINT('Origin',(0.,0.,10.));
#213=CARTESIAN_POINT('Origin',(0.,0.,0.));
#214=CARTESIAN_POINT('Origin',(0.,0.,10.));
#215=CARTESIAN_POINT('',(0.,10.,10.));
#216=CARTESIAN_POINT('',(0.,-10.,10.));
#217=CARTESIAN_POINT('',(-1.7763568394E-15,5.00000000000001,10.));
#218=UNCERTAINTY_MEASURE_WITH_UNIT(LENGTH_MEASURE(0.01),#226,
'DISTANCE_ACCURACY_VALUE',
'Maximum model space distance between geometric entities at asserted c
onnectivities');
#219=UNCERTAINTY_MEASURE_WITH_UNIT(LENGTH_MEASURE(0.01),#226,
'DISTANCE_ACCURACY_VALUE',
'Maximum model space distance between geometric entities at asserted c
onnectivities');
#220=UNCERTAINTY_MEASURE_WITH_UNIT(LENGTH_MEASURE(0.01),#226,
'DISTANCE_ACCURACY_VALUE',
'Maximum model space distance between geometric entities at asserted c
onnectivities');
#221=UNCERTAINTY_MEASURE_WITH_UNIT(LENGTH_MEASURE(0.01),#226,
'DISTANCE_ACCURACY_VALUE',
'Maximum model space distance between geometric entities at asserted c
onnectivities');
#222=(
GEOMETRIC_REPRESENTATION_CONTEXT(3)
GLOBAL_UNCERTAINTY_ASSIGNED_CONTEXT((#218))
GLOBAL_UNIT_ASSIGNED_CONTEXT((#226,#228,#229))
REPRESENTATION_CONTEXT('','3D')
);
#223=(
GEOMETRIC_REPRESENTATION_CONTEXT(3)
GLOBAL_UNCERTAINTY_ASSIGNED_CONTEXT((#219))
GLOBAL_UNIT_ASSIGNED_CONTEXT((#226,#228,#229))
REPRESENTATION_CONTEXT('','3D')
);
#224=(
GEOMETRIC_REPRESENTATION_CONTEXT(3)
GLOBAL_UNCERTAINTY_ASSIGNED_CONTEXT((#220))
GLOBAL_UNIT_ASSIGNED_CONTEXT((#226,#228,#229))
REPRESENTATION_CONTEXT('','3D')
);
#225=(
GEOMETRIC_REPRESENTATION_CONTEXT(3)
GLOBAL_UNCERTAINTY_ASSIGNED_CONTEXT((#221))
GLOBAL_UNIT_ASSIGNED_CONTEXT((#226,#228,#229))
REPRESENTATION_CONTEXT('','3D')
);
#226=(
LENGTH_UNIT()
NAMED_UNIT(*)
SI_UNIT(.MILLI.,.METRE.)
);
#227=(
LENGTH_UNIT()
NAMED_UNIT(*)
SI_UNIT($,.METRE.)
);
#228=(
NAMED_UNIT(*)
PLANE_ANGLE_UNIT()
SI_UNIT($,.RADIAN.)
);
#229=(
NAMED_UNIT(*)
SI_UNIT($,.STERADIAN.)
SOLID_ANGLE_UNIT()
);
#230=SHAPE_DEFINITION_REPRESENTATION(#233,#239);
#231=SHAPE_DEFINITION_REPRESENTATION(#234,#240);
#232=SHAPE_DEFINITION_REPRESENTATION(#235,#241);
#233=PRODUCT_DEFINITION_SHAPE('',$,#243);
#234=PRODUCT_DEFINITION_SHAPE('',$,#244);
#235=PRODUCT_DEFINITION_SHAPE('',$,#245);
#236=PRODUCT_DEFINITION_SHAPE($,$,#20);
#237=PRODUCT_DEFINITION_SHAPE($,$,#21);
#238=PRODUCT_DEFINITION_SHAPE($,$,#22);
#239=SHAPE_REPRESENTATION('',(#128,#145,#146,#147),#222);
#240=SHAPE_REPRESENTATION('',(#129),#223);
#241=SHAPE_REPRESENTATION('',(#139),#224);
#242=PRODUCT_DEFINITION_CONTEXT('part definition',#253,'design');
#243=PRODUCT_DEFINITION('FUSE_5_20','5x20_250V_v2 v0',#246,#242);
#244=PRODUCT_DEFINITION('FRONT','FRONT',#247,#242);
#245=PRODUCT_DEFINITION('CYLINDER_5_10','CYLINDER_5_10',#248,#242);
#246=PRODUCT_DEFINITION_FORMATION('',$,#255);
#247=PRODUCT_DEFINITION_FORMATION('',$,#256);
#248=PRODUCT_DEFINITION_FORMATION('',$,#257);
#249=PRODUCT_RELATED_PRODUCT_CATEGORY('5x20_250V_v2 v0',
'5x20_250V_v2 v0',(#255));
#250=PRODUCT_RELATED_PRODUCT_CATEGORY('FRONT','FRONT',(#256));
#251=PRODUCT_RELATED_PRODUCT_CATEGORY('CYLINDER_5_10','CYLINDER_5_10',(#257));
#252=APPLICATION_PROTOCOL_DEFINITION('international standard',
'automotive_design',2009,#253);
#253=APPLICATION_CONTEXT(
'Core Data for Automotive Mechanical Design Process');
#254=PRODUCT_CONTEXT('part definition',#253,'mechanical');
#255=PRODUCT('FUSE_5_20','5x20_250V_v2 v0','FreeCAD Model',(#254));
#256=PRODUCT('FRONT','FRONT',$,(#254));
#257=PRODUCT('CYLINDER_5_10','CYLINDER_5_10',$,(#254));
#258=PRESENTATION_STYLE_ASSIGNMENT((#261));
#259=PRESENTATION_STYLE_ASSIGNMENT((#262));
#260=PRESENTATION_STYLE_ASSIGNMENT((#263));
#261=SURFACE_STYLE_USAGE(.BOTH.,#264);
#262=SURFACE_STYLE_USAGE(.BOTH.,#265);
#263=SURFACE_STYLE_USAGE(.BOTH.,#266);
#264=SURFACE_SIDE_STYLE('',(#267));
#265=SURFACE_SIDE_STYLE('',(#268));
#266=SURFACE_SIDE_STYLE('',(#269));
#267=SURFACE_STYLE_FILL_AREA(#270);
#268=SURFACE_STYLE_FILL_AREA(#271);
#269=SURFACE_STYLE_FILL_AREA(#272);
#270=FILL_AREA_STYLE('Steel - Satin',(#273));
#271=FILL_AREA_STYLE('Opaque(132,135,137)',(#274));
#272=FILL_AREA_STYLE('Opaque(204,204,204)',(#275));
#273=FILL_AREA_STYLE_COLOUR('Steel - Satin',#276);
#274=FILL_AREA_STYLE_COLOUR('Opaque(132,135,137)',#277);
#275=FILL_AREA_STYLE_COLOUR('Opaque(204,204,204)',#278);
#276=COLOUR_RGB('Steel - Satin',0.627450980392157,0.627450980392157,0.627450980392157);
#277=COLOUR_RGB('Opaque(132,135,137)',0.517647058823529,0.529411764705882,
0.537254901960784);
#278=COLOUR_RGB('Opaque(204,204,204)',0.8,0.8,0.8);
ENDSEC;
END-ISO-10303-21;
