ISO-10303-21;
HEADER;
/* Generated by software containing ST-Developer
 * from STEP Tools, Inc. (www.steptools.com) 
 */

FILE_DESCRIPTION(
/* description */ (''),
/* implementation_level */ '2;1');

FILE_NAME(
/* name */ 'JGA25-370.step',
/* time_stamp */ '2024-07-12T19:17:43+02:00',
/* author */ (''),
/* organization */ (''),
/* preprocessor_version */ 'ST-DEVELOPER v20',
/* originating_system */ 'Autodesk Translation Framework v13.14.0.145',

/* authorisation */ '');

FILE_SCHEMA (('AUTOMOTIVE_DESIGN { 1 0 10303 214 3 1 1 }'));
ENDSEC;

DATA;
#10=MECHANICAL_DESIGN_GEOMETRIC_PRESENTATION_REPRESENTATION('',(#13),#663);
#11=SHAPE_REPRESENTATION_RELATIONSHIP('SRR','None',#670,#12);
#12=ADVANCED_BREP_SHAPE_REPRESENTATION('',(#14),#662);
#13=STYLED_ITEM('',(#679),#14);
#14=MANIFOLD_SOLID_BREP('JGA25-370',#387);
#15=FACE_BOUND('',#80,.T.);
#16=FACE_BOUND('',#81,.T.);
#17=FACE_BOUND('',#82,.T.);
#18=FACE_BOUND('',#84,.T.);
#19=FACE_BOUND('',#85,.T.);
#20=FACE_BOUND('',#86,.T.);
#21=FACE_BOUND('',#95,.T.);
#22=CYLINDRICAL_SURFACE('',#408,3.);
#23=CYLINDRICAL_SURFACE('',#422,12.2);
#24=CYLINDRICAL_SURFACE('',#423,3.5);
#25=CYLINDRICAL_SURFACE('',#425,2.);
#26=CYLINDRICAL_SURFACE('',#432,1.2645);
#27=CYLINDRICAL_SURFACE('',#435,1.2645);
#28=CIRCLE('',#407,3.);
#29=CIRCLE('',#409,3.);
#30=CIRCLE('',#416,12.2);
#31=CIRCLE('',#418,12.2);
#32=CIRCLE('',#419,1.2645);
#33=CIRCLE('',#420,1.2645);
#34=CIRCLE('',#421,3.5);
#35=CIRCLE('',#424,3.5);
#36=CIRCLE('',#426,2.);
#37=CIRCLE('',#427,2.);
#38=CIRCLE('',#428,2.);
#39=CIRCLE('',#429,2.);
#40=CIRCLE('',#431,1.2645);
#41=CIRCLE('',#434,1.2645);
#42=FACE_OUTER_BOUND('',#67,.T.);
#43=FACE_OUTER_BOUND('',#68,.T.);
#44=FACE_OUTER_BOUND('',#69,.T.);
#45=FACE_OUTER_BOUND('',#70,.T.);
#46=FACE_OUTER_BOUND('',#71,.T.);
#47=FACE_OUTER_BOUND('',#72,.T.);
#48=FACE_OUTER_BOUND('',#73,.T.);
#49=FACE_OUTER_BOUND('',#74,.T.);
#50=FACE_OUTER_BOUND('',#75,.T.);
#51=FACE_OUTER_BOUND('',#76,.T.);
#52=FACE_OUTER_BOUND('',#77,.T.);
#53=FACE_OUTER_BOUND('',#78,.T.);
#54=FACE_OUTER_BOUND('',#79,.T.);
#55=FACE_OUTER_BOUND('',#83,.T.);
#56=FACE_OUTER_BOUND('',#87,.T.);
#57=FACE_OUTER_BOUND('',#88,.T.);
#58=FACE_OUTER_BOUND('',#89,.T.);
#59=FACE_OUTER_BOUND('',#90,.T.);
#60=FACE_OUTER_BOUND('',#91,.T.);
#61=FACE_OUTER_BOUND('',#92,.T.);
#62=FACE_OUTER_BOUND('',#93,.T.);
#63=FACE_OUTER_BOUND('',#94,.T.);
#64=FACE_OUTER_BOUND('',#96,.T.);
#65=FACE_OUTER_BOUND('',#97,.T.);
#66=FACE_OUTER_BOUND('',#98,.T.);
#67=EDGE_LOOP('',(#247,#248,#249,#250));
#68=EDGE_LOOP('',(#251,#252,#253,#254));
#69=EDGE_LOOP('',(#255,#256,#257,#258));
#70=EDGE_LOOP('',(#259,#260,#261,#262));
#71=EDGE_LOOP('',(#263,#264,#265,#266));
#72=EDGE_LOOP('',(#267));
#73=EDGE_LOOP('',(#268,#269,#270,#271));
#74=EDGE_LOOP('',(#272,#273,#274,#275));
#75=EDGE_LOOP('',(#276,#277,#278,#279));
#76=EDGE_LOOP('',(#280,#281,#282,#283));
#77=EDGE_LOOP('',(#284,#285,#286,#287));
#78=EDGE_LOOP('',(#288,#289,#290,#291));
#79=EDGE_LOOP('',(#292));
#80=EDGE_LOOP('',(#293,#294,#295,#296));
#81=EDGE_LOOP('',(#297));
#82=EDGE_LOOP('',(#298,#299,#300,#301));
#83=EDGE_LOOP('',(#302));
#84=EDGE_LOOP('',(#303));
#85=EDGE_LOOP('',(#304));
#86=EDGE_LOOP('',(#305));
#87=EDGE_LOOP('',(#306,#307,#308,#309));
#88=EDGE_LOOP('',(#310,#311,#312,#313));
#89=EDGE_LOOP('',(#314,#315,#316,#317,#318,#319,#320,#321));
#90=EDGE_LOOP('',(#322));
#91=EDGE_LOOP('',(#323,#324,#325,#326));
#92=EDGE_LOOP('',(#327));
#93=EDGE_LOOP('',(#328,#329,#330,#331));
#94=EDGE_LOOP('',(#332));
#95=EDGE_LOOP('',(#333));
#96=EDGE_LOOP('',(#334,#335));
#97=EDGE_LOOP('',(#336,#337,#338,#339));
#98=EDGE_LOOP('',(#340,#341,#342));
#99=LINE('',#558,#133);
#100=LINE('',#560,#134);
#101=LINE('',#562,#135);
#102=LINE('',#563,#136);
#103=LINE('',#566,#137);
#104=LINE('',#568,#138);
#105=LINE('',#569,#139);
#106=LINE('',#572,#140);
#107=LINE('',#574,#141);
#108=LINE('',#575,#142);
#109=LINE('',#577,#143);
#110=LINE('',#578,#144);
#111=LINE('',#585,#145);
#112=LINE('',#590,#146);
#113=LINE('',#592,#147);
#114=LINE('',#594,#148);
#115=LINE('',#595,#149);
#116=LINE('',#598,#150);
#117=LINE('',#600,#151);
#118=LINE('',#601,#152);
#119=LINE('',#604,#153);
#120=LINE('',#606,#154);
#121=LINE('',#607,#155);
#122=LINE('',#609,#156);
#123=LINE('',#610,#157);
#124=LINE('',#625,#158);
#125=LINE('',#629,#159);
#126=LINE('',#635,#160);
#127=LINE('',#640,#161);
#128=LINE('',#643,#162);
#129=LINE('',#648,#163);
#130=LINE('',#653,#164);
#131=LINE('',#656,#165);
#132=LINE('',#658,#166);
#133=VECTOR('',#444,10.);
#134=VECTOR('',#445,10.);
#135=VECTOR('',#446,10.);
#136=VECTOR('',#447,10.);
#137=VECTOR('',#450,10.);
#138=VECTOR('',#451,10.);
#139=VECTOR('',#452,10.);
#140=VECTOR('',#455,10.);
#141=VECTOR('',#456,10.);
#142=VECTOR('',#457,10.);
#143=VECTOR('',#460,10.);
#144=VECTOR('',#461,10.);
#145=VECTOR('',#470,3.);
#146=VECTOR('',#475,10.);
#147=VECTOR('',#476,10.);
#148=VECTOR('',#477,10.);
#149=VECTOR('',#478,10.);
#150=VECTOR('',#481,10.);
#151=VECTOR('',#482,10.);
#152=VECTOR('',#483,10.);
#153=VECTOR('',#486,10.);
#154=VECTOR('',#487,10.);
#155=VECTOR('',#488,10.);
#156=VECTOR('',#491,10.);
#157=VECTOR('',#492,10.);
#158=VECTOR('',#511,12.2);
#159=VECTOR('',#516,3.5);
#160=VECTOR('',#521,2.);
#161=VECTOR('',#526,10.);
#162=VECTOR('',#529,10.);
#163=VECTOR('',#536,1.2645);
#164=VECTOR('',#543,1.2645);
#165=VECTOR('',#548,10.);
#166=VECTOR('',#551,10.);
#167=VERTEX_POINT('',#556);
#168=VERTEX_POINT('',#557);
#169=VERTEX_POINT('',#559);
#170=VERTEX_POINT('',#561);
#171=VERTEX_POINT('',#565);
#172=VERTEX_POINT('',#567);
#173=VERTEX_POINT('',#571);
#174=VERTEX_POINT('',#573);
#175=VERTEX_POINT('',#581);
#176=VERTEX_POINT('',#584);
#177=VERTEX_POINT('',#588);
#178=VERTEX_POINT('',#589);
#179=VERTEX_POINT('',#591);
#180=VERTEX_POINT('',#593);
#181=VERTEX_POINT('',#597);
#182=VERTEX_POINT('',#599);
#183=VERTEX_POINT('',#603);
#184=VERTEX_POINT('',#605);
#185=VERTEX_POINT('',#613);
#186=VERTEX_POINT('',#616);
#187=VERTEX_POINT('',#618);
#188=VERTEX_POINT('',#620);
#189=VERTEX_POINT('',#622);
#190=VERTEX_POINT('',#627);
#191=VERTEX_POINT('',#631);
#192=VERTEX_POINT('',#632);
#193=VERTEX_POINT('',#634);
#194=VERTEX_POINT('',#637);
#195=VERTEX_POINT('',#639);
#196=VERTEX_POINT('',#641);
#197=VERTEX_POINT('',#645);
#198=VERTEX_POINT('',#650);
#199=EDGE_CURVE('',#167,#168,#99,.T.);
#200=EDGE_CURVE('',#167,#169,#100,.T.);
#201=EDGE_CURVE('',#170,#169,#101,.T.);
#202=EDGE_CURVE('',#168,#170,#102,.T.);
#203=EDGE_CURVE('',#168,#171,#103,.T.);
#204=EDGE_CURVE('',#172,#170,#104,.T.);
#205=EDGE_CURVE('',#171,#172,#105,.T.);
#206=EDGE_CURVE('',#171,#173,#106,.T.);
#207=EDGE_CURVE('',#174,#172,#107,.T.);
#208=EDGE_CURVE('',#173,#174,#108,.T.);
#209=EDGE_CURVE('',#173,#167,#109,.T.);
#210=EDGE_CURVE('',#169,#174,#110,.T.);
#211=EDGE_CURVE('',#175,#175,#28,.T.);
#212=EDGE_CURVE('',#175,#176,#111,.T.);
#213=EDGE_CURVE('',#176,#176,#29,.T.);
#214=EDGE_CURVE('',#177,#178,#112,.T.);
#215=EDGE_CURVE('',#177,#179,#113,.T.);
#216=EDGE_CURVE('',#180,#179,#114,.T.);
#217=EDGE_CURVE('',#178,#180,#115,.T.);
#218=EDGE_CURVE('',#178,#181,#116,.T.);
#219=EDGE_CURVE('',#182,#180,#117,.T.);
#220=EDGE_CURVE('',#181,#182,#118,.T.);
#221=EDGE_CURVE('',#181,#183,#119,.T.);
#222=EDGE_CURVE('',#184,#182,#120,.T.);
#223=EDGE_CURVE('',#183,#184,#121,.T.);
#224=EDGE_CURVE('',#183,#177,#122,.T.);
#225=EDGE_CURVE('',#179,#184,#123,.T.);
#226=EDGE_CURVE('',#185,#185,#30,.T.);
#227=EDGE_CURVE('',#186,#186,#31,.T.);
#228=EDGE_CURVE('',#187,#187,#32,.T.);
#229=EDGE_CURVE('',#188,#188,#33,.T.);
#230=EDGE_CURVE('',#189,#189,#34,.T.);
#231=EDGE_CURVE('',#185,#186,#124,.T.);
#232=EDGE_CURVE('',#190,#190,#35,.T.);
#233=EDGE_CURVE('',#190,#189,#125,.T.);
#234=EDGE_CURVE('',#191,#192,#36,.T.);
#235=EDGE_CURVE('',#192,#193,#126,.T.);
#236=EDGE_CURVE('',#193,#193,#37,.T.);
#237=EDGE_CURVE('',#192,#194,#38,.T.);
#238=EDGE_CURVE('',#194,#195,#127,.T.);
#239=EDGE_CURVE('',#196,#195,#39,.T.);
#240=EDGE_CURVE('',#196,#191,#128,.T.);
#241=EDGE_CURVE('',#197,#197,#40,.T.);
#242=EDGE_CURVE('',#188,#197,#129,.T.);
#243=EDGE_CURVE('',#198,#198,#41,.T.);
#244=EDGE_CURVE('',#187,#198,#130,.T.);
#245=EDGE_CURVE('',#196,#195,#131,.T.);
#246=EDGE_CURVE('',#194,#191,#132,.T.);
#247=ORIENTED_EDGE('',*,*,#199,.F.);
#248=ORIENTED_EDGE('',*,*,#200,.T.);
#249=ORIENTED_EDGE('',*,*,#201,.F.);
#250=ORIENTED_EDGE('',*,*,#202,.F.);
#251=ORIENTED_EDGE('',*,*,#203,.F.);
#252=ORIENTED_EDGE('',*,*,#202,.T.);
#253=ORIENTED_EDGE('',*,*,#204,.F.);
#254=ORIENTED_EDGE('',*,*,#205,.F.);
#255=ORIENTED_EDGE('',*,*,#206,.F.);
#256=ORIENTED_EDGE('',*,*,#205,.T.);
#257=ORIENTED_EDGE('',*,*,#207,.F.);
#258=ORIENTED_EDGE('',*,*,#208,.F.);
#259=ORIENTED_EDGE('',*,*,#209,.F.);
#260=ORIENTED_EDGE('',*,*,#208,.T.);
#261=ORIENTED_EDGE('',*,*,#210,.F.);
#262=ORIENTED_EDGE('',*,*,#200,.F.);
#263=ORIENTED_EDGE('',*,*,#210,.T.);
#264=ORIENTED_EDGE('',*,*,#207,.T.);
#265=ORIENTED_EDGE('',*,*,#204,.T.);
#266=ORIENTED_EDGE('',*,*,#201,.T.);
#267=ORIENTED_EDGE('',*,*,#211,.T.);
#268=ORIENTED_EDGE('',*,*,#211,.F.);
#269=ORIENTED_EDGE('',*,*,#212,.T.);
#270=ORIENTED_EDGE('',*,*,#213,.F.);
#271=ORIENTED_EDGE('',*,*,#212,.F.);
#272=ORIENTED_EDGE('',*,*,#214,.F.);
#273=ORIENTED_EDGE('',*,*,#215,.T.);
#274=ORIENTED_EDGE('',*,*,#216,.F.);
#275=ORIENTED_EDGE('',*,*,#217,.F.);
#276=ORIENTED_EDGE('',*,*,#218,.F.);
#277=ORIENTED_EDGE('',*,*,#217,.T.);
#278=ORIENTED_EDGE('',*,*,#219,.F.);
#279=ORIENTED_EDGE('',*,*,#220,.F.);
#280=ORIENTED_EDGE('',*,*,#221,.F.);
#281=ORIENTED_EDGE('',*,*,#220,.T.);
#282=ORIENTED_EDGE('',*,*,#222,.F.);
#283=ORIENTED_EDGE('',*,*,#223,.F.);
#284=ORIENTED_EDGE('',*,*,#224,.F.);
#285=ORIENTED_EDGE('',*,*,#223,.T.);
#286=ORIENTED_EDGE('',*,*,#225,.F.);
#287=ORIENTED_EDGE('',*,*,#215,.F.);
#288=ORIENTED_EDGE('',*,*,#225,.T.);
#289=ORIENTED_EDGE('',*,*,#222,.T.);
#290=ORIENTED_EDGE('',*,*,#219,.T.);
#291=ORIENTED_EDGE('',*,*,#216,.T.);
#292=ORIENTED_EDGE('',*,*,#226,.F.);
#293=ORIENTED_EDGE('',*,*,#199,.T.);
#294=ORIENTED_EDGE('',*,*,#203,.T.);
#295=ORIENTED_EDGE('',*,*,#206,.T.);
#296=ORIENTED_EDGE('',*,*,#209,.T.);
#297=ORIENTED_EDGE('',*,*,#213,.T.);
#298=ORIENTED_EDGE('',*,*,#214,.T.);
#299=ORIENTED_EDGE('',*,*,#218,.T.);
#300=ORIENTED_EDGE('',*,*,#221,.T.);
#301=ORIENTED_EDGE('',*,*,#224,.T.);
#302=ORIENTED_EDGE('',*,*,#227,.F.);
#303=ORIENTED_EDGE('',*,*,#228,.T.);
#304=ORIENTED_EDGE('',*,*,#229,.T.);
#305=ORIENTED_EDGE('',*,*,#230,.T.);
#306=ORIENTED_EDGE('',*,*,#226,.T.);
#307=ORIENTED_EDGE('',*,*,#231,.T.);
#308=ORIENTED_EDGE('',*,*,#227,.T.);
#309=ORIENTED_EDGE('',*,*,#231,.F.);
#310=ORIENTED_EDGE('',*,*,#232,.F.);
#311=ORIENTED_EDGE('',*,*,#233,.T.);
#312=ORIENTED_EDGE('',*,*,#230,.F.);
#313=ORIENTED_EDGE('',*,*,#233,.F.);
#314=ORIENTED_EDGE('',*,*,#234,.T.);
#315=ORIENTED_EDGE('',*,*,#235,.T.);
#316=ORIENTED_EDGE('',*,*,#236,.T.);
#317=ORIENTED_EDGE('',*,*,#235,.F.);
#318=ORIENTED_EDGE('',*,*,#237,.T.);
#319=ORIENTED_EDGE('',*,*,#238,.T.);
#320=ORIENTED_EDGE('',*,*,#239,.F.);
#321=ORIENTED_EDGE('',*,*,#240,.T.);
#322=ORIENTED_EDGE('',*,*,#241,.F.);
#323=ORIENTED_EDGE('',*,*,#229,.F.);
#324=ORIENTED_EDGE('',*,*,#242,.T.);
#325=ORIENTED_EDGE('',*,*,#241,.T.);
#326=ORIENTED_EDGE('',*,*,#242,.F.);
#327=ORIENTED_EDGE('',*,*,#243,.F.);
#328=ORIENTED_EDGE('',*,*,#228,.F.);
#329=ORIENTED_EDGE('',*,*,#244,.T.);
#330=ORIENTED_EDGE('',*,*,#243,.T.);
#331=ORIENTED_EDGE('',*,*,#244,.F.);
#332=ORIENTED_EDGE('',*,*,#232,.T.);
#333=ORIENTED_EDGE('',*,*,#236,.F.);
#334=ORIENTED_EDGE('',*,*,#239,.T.);
#335=ORIENTED_EDGE('',*,*,#245,.F.);
#336=ORIENTED_EDGE('',*,*,#246,.T.);
#337=ORIENTED_EDGE('',*,*,#240,.F.);
#338=ORIENTED_EDGE('',*,*,#245,.T.);
#339=ORIENTED_EDGE('',*,*,#238,.F.);
#340=ORIENTED_EDGE('',*,*,#246,.F.);
#341=ORIENTED_EDGE('',*,*,#237,.F.);
#342=ORIENTED_EDGE('',*,*,#234,.F.);
#343=PLANE('',#401);
#344=PLANE('',#402);
#345=PLANE('',#403);
#346=PLANE('',#404);
#347=PLANE('',#405);
#348=PLANE('',#406);
#349=PLANE('',#410);
#350=PLANE('',#411);
#351=PLANE('',#412);
#352=PLANE('',#413);
#353=PLANE('',#414);
#354=PLANE('',#415);
#355=PLANE('',#417);
#356=PLANE('',#430);
#357=PLANE('',#433);
#358=PLANE('',#436);
#359=PLANE('',#437);
#360=PLANE('',#438);
#361=PLANE('',#439);
#362=ADVANCED_FACE('',(#42),#343,.T.);
#363=ADVANCED_FACE('',(#43),#344,.T.);
#364=ADVANCED_FACE('',(#44),#345,.T.);
#365=ADVANCED_FACE('',(#45),#346,.T.);
#366=ADVANCED_FACE('',(#46),#347,.T.);
#367=ADVANCED_FACE('',(#47),#348,.T.);
#368=ADVANCED_FACE('',(#48),#22,.T.);
#369=ADVANCED_FACE('',(#49),#349,.T.);
#370=ADVANCED_FACE('',(#50),#350,.T.);
#371=ADVANCED_FACE('',(#51),#351,.T.);
#372=ADVANCED_FACE('',(#52),#352,.T.);
#373=ADVANCED_FACE('',(#53),#353,.T.);
#374=ADVANCED_FACE('',(#54,#15,#16,#17),#354,.T.);
#375=ADVANCED_FACE('',(#55,#18,#19,#20),#355,.F.);
#376=ADVANCED_FACE('',(#56),#23,.T.);
#377=ADVANCED_FACE('',(#57),#24,.T.);
#378=ADVANCED_FACE('',(#58),#25,.T.);
#379=ADVANCED_FACE('',(#59),#356,.F.);
#380=ADVANCED_FACE('',(#60),#26,.F.);
#381=ADVANCED_FACE('',(#61),#357,.F.);
#382=ADVANCED_FACE('',(#62),#27,.F.);
#383=ADVANCED_FACE('',(#63,#21),#358,.F.);
#384=ADVANCED_FACE('',(#64),#359,.T.);
#385=ADVANCED_FACE('',(#65),#360,.F.);
#386=ADVANCED_FACE('',(#66),#361,.T.);
#387=CLOSED_SHELL('',(#362,#363,#364,#365,#366,#367,#368,#369,#370,#371,
#372,#373,#374,#375,#376,#377,#378,#379,#380,#381,#382,#383,#384,#385,#386));
#388=DERIVED_UNIT_ELEMENT(#390,1.);
#389=DERIVED_UNIT_ELEMENT(#665,-3.);
#390=(
MASS_UNIT()
NAMED_UNIT(*)
SI_UNIT(.KILO.,.GRAM.)
);
#391=DERIVED_UNIT((#388,#389));
#392=MEASURE_REPRESENTATION_ITEM('density measure',
POSITIVE_RATIO_MEASURE(7850.),#391);
#393=PROPERTY_DEFINITION_REPRESENTATION(#398,#395);
#394=PROPERTY_DEFINITION_REPRESENTATION(#399,#396);
#395=REPRESENTATION('material name',(#397),#662);
#396=REPRESENTATION('density',(#392),#662);
#397=DESCRIPTIVE_REPRESENTATION_ITEM('Steel','Steel');
#398=PROPERTY_DEFINITION('material property','material name',#672);
#399=PROPERTY_DEFINITION('material property','density of part',#672);
#400=AXIS2_PLACEMENT_3D('',#554,#440,#441);
#401=AXIS2_PLACEMENT_3D('',#555,#442,#443);
#402=AXIS2_PLACEMENT_3D('',#564,#448,#449);
#403=AXIS2_PLACEMENT_3D('',#570,#453,#454);
#404=AXIS2_PLACEMENT_3D('',#576,#458,#459);
#405=AXIS2_PLACEMENT_3D('',#579,#462,#463);
#406=AXIS2_PLACEMENT_3D('',#580,#464,#465);
#407=AXIS2_PLACEMENT_3D('',#582,#466,#467);
#408=AXIS2_PLACEMENT_3D('',#583,#468,#469);
#409=AXIS2_PLACEMENT_3D('',#586,#471,#472);
#410=AXIS2_PLACEMENT_3D('',#587,#473,#474);
#411=AXIS2_PLACEMENT_3D('',#596,#479,#480);
#412=AXIS2_PLACEMENT_3D('',#602,#484,#485);
#413=AXIS2_PLACEMENT_3D('',#608,#489,#490);
#414=AXIS2_PLACEMENT_3D('',#611,#493,#494);
#415=AXIS2_PLACEMENT_3D('',#612,#495,#496);
#416=AXIS2_PLACEMENT_3D('',#614,#497,#498);
#417=AXIS2_PLACEMENT_3D('',#615,#499,#500);
#418=AXIS2_PLACEMENT_3D('',#617,#501,#502);
#419=AXIS2_PLACEMENT_3D('',#619,#503,#504);
#420=AXIS2_PLACEMENT_3D('',#621,#505,#506);
#421=AXIS2_PLACEMENT_3D('',#623,#507,#508);
#422=AXIS2_PLACEMENT_3D('',#624,#509,#510);
#423=AXIS2_PLACEMENT_3D('',#626,#512,#513);
#424=AXIS2_PLACEMENT_3D('',#628,#514,#515);
#425=AXIS2_PLACEMENT_3D('',#630,#517,#518);
#426=AXIS2_PLACEMENT_3D('',#633,#519,#520);
#427=AXIS2_PLACEMENT_3D('',#636,#522,#523);
#428=AXIS2_PLACEMENT_3D('',#638,#524,#525);
#429=AXIS2_PLACEMENT_3D('',#642,#527,#528);
#430=AXIS2_PLACEMENT_3D('',#644,#530,#531);
#431=AXIS2_PLACEMENT_3D('',#646,#532,#533);
#432=AXIS2_PLACEMENT_3D('',#647,#534,#535);
#433=AXIS2_PLACEMENT_3D('',#649,#537,#538);
#434=AXIS2_PLACEMENT_3D('',#651,#539,#540);
#435=AXIS2_PLACEMENT_3D('',#652,#541,#542);
#436=AXIS2_PLACEMENT_3D('',#654,#544,#545);
#437=AXIS2_PLACEMENT_3D('',#655,#546,#547);
#438=AXIS2_PLACEMENT_3D('',#657,#549,#550);
#439=AXIS2_PLACEMENT_3D('',#659,#552,#553);
#440=DIRECTION('axis',(0.,0.,1.));
#441=DIRECTION('refdir',(1.,0.,0.));
#442=DIRECTION('center_axis',(0.,0.,-1.));
#443=DIRECTION('ref_axis',(-1.,0.,0.));
#444=DIRECTION('',(1.,0.,0.));
#445=DIRECTION('',(0.,1.,0.));
#446=DIRECTION('',(-1.,0.,0.));
#447=DIRECTION('',(0.,1.,0.));
#448=DIRECTION('center_axis',(1.,0.,0.));
#449=DIRECTION('ref_axis',(0.,0.,-1.));
#450=DIRECTION('',(0.,0.,1.));
#451=DIRECTION('',(0.,0.,-1.));
#452=DIRECTION('',(0.,1.,0.));
#453=DIRECTION('center_axis',(0.,0.,1.));
#454=DIRECTION('ref_axis',(1.,0.,0.));
#455=DIRECTION('',(-1.,0.,0.));
#456=DIRECTION('',(1.,0.,0.));
#457=DIRECTION('',(0.,1.,0.));
#458=DIRECTION('center_axis',(-1.,0.,0.));
#459=DIRECTION('ref_axis',(0.,0.,1.));
#460=DIRECTION('',(0.,0.,-1.));
#461=DIRECTION('',(0.,0.,1.));
#462=DIRECTION('center_axis',(0.,1.,0.));
#463=DIRECTION('ref_axis',(0.,0.,1.));
#464=DIRECTION('center_axis',(0.,1.,0.));
#465=DIRECTION('ref_axis',(-1.,0.,0.));
#466=DIRECTION('center_axis',(0.,1.,0.));
#467=DIRECTION('ref_axis',(-1.,0.,0.));
#468=DIRECTION('center_axis',(0.,1.,0.));
#469=DIRECTION('ref_axis',(-1.,0.,0.));
#470=DIRECTION('',(0.,-1.,0.));
#471=DIRECTION('center_axis',(0.,-1.,0.));
#472=DIRECTION('ref_axis',(-1.,0.,0.));
#473=DIRECTION('center_axis',(1.,0.,0.));
#474=DIRECTION('ref_axis',(0.,0.,-1.));
#475=DIRECTION('',(0.,0.,1.));
#476=DIRECTION('',(0.,1.,0.));
#477=DIRECTION('',(0.,0.,-1.));
#478=DIRECTION('',(0.,1.,0.));
#479=DIRECTION('center_axis',(0.,0.,1.));
#480=DIRECTION('ref_axis',(1.,0.,0.));
#481=DIRECTION('',(-1.,0.,0.));
#482=DIRECTION('',(1.,0.,0.));
#483=DIRECTION('',(0.,1.,0.));
#484=DIRECTION('center_axis',(-1.,0.,0.));
#485=DIRECTION('ref_axis',(0.,0.,1.));
#486=DIRECTION('',(0.,0.,-1.));
#487=DIRECTION('',(0.,0.,1.));
#488=DIRECTION('',(0.,1.,0.));
#489=DIRECTION('center_axis',(0.,0.,-1.));
#490=DIRECTION('ref_axis',(-1.,0.,0.));
#491=DIRECTION('',(1.,0.,0.));
#492=DIRECTION('',(-1.,0.,0.));
#493=DIRECTION('center_axis',(0.,1.,0.));
#494=DIRECTION('ref_axis',(0.,0.,1.));
#495=DIRECTION('center_axis',(0.,1.,0.));
#496=DIRECTION('ref_axis',(1.,0.,0.));
#497=DIRECTION('center_axis',(0.,-1.,0.));
#498=DIRECTION('ref_axis',(1.,0.,0.));
#499=DIRECTION('center_axis',(0.,1.,0.));
#500=DIRECTION('ref_axis',(1.,0.,0.));
#501=DIRECTION('center_axis',(0.,1.,0.));
#502=DIRECTION('ref_axis',(1.,0.,0.));
#503=DIRECTION('center_axis',(0.,1.,0.));
#504=DIRECTION('ref_axis',(0.,0.,-1.));
#505=DIRECTION('center_axis',(0.,1.,0.));
#506=DIRECTION('ref_axis',(0.,0.,-1.));
#507=DIRECTION('center_axis',(0.,1.,0.));
#508=DIRECTION('ref_axis',(1.,0.,0.));
#509=DIRECTION('center_axis',(0.,1.,0.));
#510=DIRECTION('ref_axis',(1.,0.,0.));
#511=DIRECTION('',(0.,-1.,0.));
#512=DIRECTION('center_axis',(0.,-1.,0.));
#513=DIRECTION('ref_axis',(1.,0.,0.));
#514=DIRECTION('center_axis',(0.,-1.,0.));
#515=DIRECTION('ref_axis',(1.,0.,0.));
#516=DIRECTION('',(0.,1.,0.));
#517=DIRECTION('center_axis',(0.,-1.,0.));
#518=DIRECTION('ref_axis',(1.,0.,0.));
#519=DIRECTION('center_axis',(0.,1.,0.));
#520=DIRECTION('ref_axis',(1.,0.,0.));
#521=DIRECTION('',(0.,1.,0.));
#522=DIRECTION('center_axis',(0.,-1.,0.));
#523=DIRECTION('ref_axis',(1.,0.,0.));
#524=DIRECTION('center_axis',(0.,1.,0.));
#525=DIRECTION('ref_axis',(1.,0.,0.));
#526=DIRECTION('',(0.,1.,0.));
#527=DIRECTION('center_axis',(0.,-1.,0.));
#528=DIRECTION('ref_axis',(1.,0.,0.));
#529=DIRECTION('',(0.,-1.,0.));
#530=DIRECTION('center_axis',(0.,1.,0.));
#531=DIRECTION('ref_axis',(0.,0.,-1.));
#532=DIRECTION('center_axis',(0.,1.,0.));
#533=DIRECTION('ref_axis',(0.,0.,-1.));
#534=DIRECTION('center_axis',(0.,1.,0.));
#535=DIRECTION('ref_axis',(0.,0.,-1.));
#536=DIRECTION('',(0.,1.,0.));
#537=DIRECTION('center_axis',(0.,1.,0.));
#538=DIRECTION('ref_axis',(0.,0.,-1.));
#539=DIRECTION('center_axis',(0.,1.,0.));
#540=DIRECTION('ref_axis',(0.,0.,-1.));
#541=DIRECTION('center_axis',(0.,1.,0.));
#542=DIRECTION('ref_axis',(0.,0.,-1.));
#543=DIRECTION('',(0.,1.,0.));
#544=DIRECTION('center_axis',(0.,1.,0.));
#545=DIRECTION('ref_axis',(1.,0.,0.));
#546=DIRECTION('center_axis',(0.,-1.,0.));
#547=DIRECTION('ref_axis',(1.,0.,0.));
#548=DIRECTION('',(-1.,0.,0.));
#549=DIRECTION('center_axis',(0.,0.,-1.));
#550=DIRECTION('ref_axis',(-1.,0.,0.));
#551=DIRECTION('',(1.,0.,0.));
#552=DIRECTION('center_axis',(0.,-1.,0.));
#553=DIRECTION('ref_axis',(1.,0.,0.));
#554=CARTESIAN_POINT('',(0.,0.,0.));
#555=CARTESIAN_POINT('Origin',(2.,49.5,-10.5));
#556=CARTESIAN_POINT('',(-2.,49.5,-10.5));
#557=CARTESIAN_POINT('',(2.,49.5,-10.5));
#558=CARTESIAN_POINT('',(1.,49.5,-10.5));
#559=CARTESIAN_POINT('',(-2.,53.,-10.5));
#560=CARTESIAN_POINT('',(-2.,49.5,-10.5));
#561=CARTESIAN_POINT('',(2.,53.,-10.5));
#562=CARTESIAN_POINT('',(2.,53.,-10.5));
#563=CARTESIAN_POINT('',(2.,49.5,-10.5));
#564=CARTESIAN_POINT('Origin',(2.,49.5,-9.));
#565=CARTESIAN_POINT('',(2.,49.5,-9.));
#566=CARTESIAN_POINT('',(2.,49.5,-4.5));
#567=CARTESIAN_POINT('',(2.,53.,-9.));
#568=CARTESIAN_POINT('',(2.,53.,-9.));
#569=CARTESIAN_POINT('',(2.,49.5,-9.));
#570=CARTESIAN_POINT('Origin',(-2.,49.5,-9.));
#571=CARTESIAN_POINT('',(-2.,49.5,-9.));
#572=CARTESIAN_POINT('',(-1.,49.5,-9.));
#573=CARTESIAN_POINT('',(-2.,53.,-9.));
#574=CARTESIAN_POINT('',(-2.,53.,-9.));
#575=CARTESIAN_POINT('',(-2.,49.5,-9.));
#576=CARTESIAN_POINT('Origin',(-2.,49.5,-10.5));
#577=CARTESIAN_POINT('',(-2.,49.5,-5.25));
#578=CARTESIAN_POINT('',(-2.,53.,-10.5));
#579=CARTESIAN_POINT('Origin',(0.,53.,-9.75));
#580=CARTESIAN_POINT('Origin',(0.,50.5,0.));
#581=CARTESIAN_POINT('',(3.,50.5,-3.67394039744206E-16));
#582=CARTESIAN_POINT('Origin',(0.,50.5,0.));
#583=CARTESIAN_POINT('Origin',(0.,49.5,0.));
#584=CARTESIAN_POINT('',(3.,49.5,-3.67394039744206E-16));
#585=CARTESIAN_POINT('',(3.,49.5,-3.67394039744206E-16));
#586=CARTESIAN_POINT('Origin',(0.,49.5,0.));
#587=CARTESIAN_POINT('Origin',(2.,49.5,10.5));
#588=CARTESIAN_POINT('',(2.,49.5,9.));
#589=CARTESIAN_POINT('',(2.,49.5,10.5));
#590=CARTESIAN_POINT('',(2.,49.5,5.25));
#591=CARTESIAN_POINT('',(2.,53.,9.));
#592=CARTESIAN_POINT('',(2.,49.5,9.));
#593=CARTESIAN_POINT('',(2.,53.,10.5));
#594=CARTESIAN_POINT('',(2.,53.,9.));
#595=CARTESIAN_POINT('',(2.,49.5,10.5));
#596=CARTESIAN_POINT('Origin',(-2.,49.5,10.5));
#597=CARTESIAN_POINT('',(-2.,49.5,10.5));
#598=CARTESIAN_POINT('',(-1.,49.5,10.5));
#599=CARTESIAN_POINT('',(-2.,53.,10.5));
#600=CARTESIAN_POINT('',(2.,53.,10.5));
#601=CARTESIAN_POINT('',(-2.,49.5,10.5));
#602=CARTESIAN_POINT('Origin',(-2.,49.5,9.));
#603=CARTESIAN_POINT('',(-2.,49.5,9.));
#604=CARTESIAN_POINT('',(-2.,49.5,4.5));
#605=CARTESIAN_POINT('',(-2.,53.,9.));
#606=CARTESIAN_POINT('',(-2.,53.,10.5));
#607=CARTESIAN_POINT('',(-2.,49.5,9.));
#608=CARTESIAN_POINT('Origin',(2.,49.5,9.));
#609=CARTESIAN_POINT('',(1.,49.5,9.));
#610=CARTESIAN_POINT('',(-2.,53.,9.));
#611=CARTESIAN_POINT('Origin',(0.,53.,9.75));
#612=CARTESIAN_POINT('Origin',(0.,49.5,0.));
#613=CARTESIAN_POINT('',(-12.2,49.5,1.49406909495977E-15));
#614=CARTESIAN_POINT('Origin',(0.,49.5,0.));
#615=CARTESIAN_POINT('Origin',(0.,0.,0.));
#616=CARTESIAN_POINT('',(-12.2,0.,1.49406909495977E-15));
#617=CARTESIAN_POINT('Origin',(0.,0.,0.));
#618=CARTESIAN_POINT('',(1.54856587752183E-16,0.,9.7645));
#619=CARTESIAN_POINT('Origin',(0.,0.,8.5));
#620=CARTESIAN_POINT('',(-8.86093191523068E-16,0.,-7.2355));
#621=CARTESIAN_POINT('Origin',(-1.04094977927525E-15,0.,-8.5));
#622=CARTESIAN_POINT('',(-3.5,0.,4.28626379701574E-16));
#623=CARTESIAN_POINT('Origin',(0.,0.,0.));
#624=CARTESIAN_POINT('Origin',(0.,0.,0.));
#625=CARTESIAN_POINT('',(-12.2,0.,1.49406909495977E-15));
#626=CARTESIAN_POINT('Origin',(0.,0.,0.));
#627=CARTESIAN_POINT('',(-3.5,-2.78,4.28626379701574E-16));
#628=CARTESIAN_POINT('Origin',(0.,-2.78,0.));
#629=CARTESIAN_POINT('',(-3.5,0.,-4.28626379701574E-16));
#630=CARTESIAN_POINT('Origin',(0.,-2.38,0.));
#631=CARTESIAN_POINT('',(1.32287565553229,-12.48,1.5));
#632=CARTESIAN_POINT('',(-2.,-12.48,-2.44929359829471E-16));
#633=CARTESIAN_POINT('Origin',(0.,-12.48,0.));
#634=CARTESIAN_POINT('',(-2.,-2.78,-2.44929359829471E-16));
#635=CARTESIAN_POINT('',(-2.,-2.38,-2.44929359829471E-16));
#636=CARTESIAN_POINT('Origin',(0.,-2.78,0.));
#637=CARTESIAN_POINT('',(-1.32287565553229,-12.48,1.5));
#638=CARTESIAN_POINT('Origin',(0.,-12.48,0.));
#639=CARTESIAN_POINT('',(-1.32287565553229,-4.48,1.5));
#640=CARTESIAN_POINT('',(-1.32287565553229,-2.38,1.5));
#641=CARTESIAN_POINT('',(1.32287565553229,-4.48,1.5));
#642=CARTESIAN_POINT('Origin',(0.,-4.48,0.));
#643=CARTESIAN_POINT('',(1.32287565553229,-2.38,1.5));
#644=CARTESIAN_POINT('Origin',(-1.04094977927525E-15,5.,-8.5));
#645=CARTESIAN_POINT('',(-8.86093191523068E-16,5.,-7.2355));
#646=CARTESIAN_POINT('Origin',(-1.04094977927525E-15,5.,-8.5));
#647=CARTESIAN_POINT('Origin',(-1.04094977927525E-15,2.5,-8.5));
#648=CARTESIAN_POINT('',(-8.86093191523068E-16,2.5,-7.2355));
#649=CARTESIAN_POINT('Origin',(0.,5.,8.5));
#650=CARTESIAN_POINT('',(1.54856587752183E-16,5.,9.7645));
#651=CARTESIAN_POINT('Origin',(0.,5.,8.5));
#652=CARTESIAN_POINT('Origin',(0.,2.5,8.5));
#653=CARTESIAN_POINT('',(1.54856587752183E-16,2.5,9.7645));
#654=CARTESIAN_POINT('Origin',(0.,-2.78,0.));
#655=CARTESIAN_POINT('Origin',(0.,-4.48,1.75));
#656=CARTESIAN_POINT('',(0.661437827766146,-4.48,1.5));
#657=CARTESIAN_POINT('Origin',(1.32287565553229,-12.38,1.5));
#658=CARTESIAN_POINT('',(0.661437827766146,-12.48,1.5));
#659=CARTESIAN_POINT('Origin',(0.,-12.48,0.));
#660=UNCERTAINTY_MEASURE_WITH_UNIT(LENGTH_MEASURE(0.01),#664,
'DISTANCE_ACCURACY_VALUE',
'Maximum model space distance between geometric entities at asserted c
onnectivities');
#661=UNCERTAINTY_MEASURE_WITH_UNIT(LENGTH_MEASURE(0.01),#664,
'DISTANCE_ACCURACY_VALUE',
'Maximum model space distance between geometric entities at asserted c
onnectivities');
#662=(
GEOMETRIC_REPRESENTATION_CONTEXT(3)
GLOBAL_UNCERTAINTY_ASSIGNED_CONTEXT((#660))
GLOBAL_UNIT_ASSIGNED_CONTEXT((#664,#666,#667))
REPRESENTATION_CONTEXT('','3D')
);
#663=(
GEOMETRIC_REPRESENTATION_CONTEXT(3)
GLOBAL_UNCERTAINTY_ASSIGNED_CONTEXT((#661))
GLOBAL_UNIT_ASSIGNED_CONTEXT((#664,#666,#667))
REPRESENTATION_CONTEXT('','3D')
);
#664=(
LENGTH_UNIT()
NAMED_UNIT(*)
SI_UNIT(.MILLI.,.METRE.)
);
#665=(
LENGTH_UNIT()
NAMED_UNIT(*)
SI_UNIT($,.METRE.)
);
#666=(
NAMED_UNIT(*)
PLANE_ANGLE_UNIT()
SI_UNIT($,.RADIAN.)
);
#667=(
NAMED_UNIT(*)
SI_UNIT($,.STERADIAN.)
SOLID_ANGLE_UNIT()
);
#668=SHAPE_DEFINITION_REPRESENTATION(#669,#670);
#669=PRODUCT_DEFINITION_SHAPE('',$,#672);
#670=SHAPE_REPRESENTATION('',(#400),#662);
#671=PRODUCT_DEFINITION_CONTEXT('part definition',#676,'design');
#672=PRODUCT_DEFINITION('#WHC11.B.V0x4 - JGA25-370',
'#WHC11.B.V0x4 - JGA25-370 v9',#673,#671);
#673=PRODUCT_DEFINITION_FORMATION('',$,#678);
#674=PRODUCT_RELATED_PRODUCT_CATEGORY('#WHC11.B.V0x4 - JGA25-370 v9',
'#WHC11.B.V0x4 - JGA25-370 v9',(#678));
#675=APPLICATION_PROTOCOL_DEFINITION('international standard',
'automotive_design',2009,#676);
#676=APPLICATION_CONTEXT(
'Core Data for Automotive Mechanical Design Process');
#677=PRODUCT_CONTEXT('part definition',#676,'mechanical');
#678=PRODUCT('#WHC11.B.V0x4 - JGA25-370','#WHC11.B.V0x4 - JGA25-370 v9',
$,(#677));
#679=PRESENTATION_STYLE_ASSIGNMENT((#680));
#680=SURFACE_STYLE_USAGE(.BOTH.,#681);
#681=SURFACE_SIDE_STYLE('',(#682));
#682=SURFACE_STYLE_FILL_AREA(#683);
#683=FILL_AREA_STYLE('Steel - Satin',(#684));
#684=FILL_AREA_STYLE_COLOUR('Steel - Satin',#685);
#685=COLOUR_RGB('Steel - Satin',0.627450980392157,0.627450980392157,0.627450980392157);
ENDSEC;
END-ISO-10303-21;
